Frozen Fire - Insane Chords & Tabs

 

Insane Chords & Tabs

Frozen Fire Chords & Tabs

Version: 1 Type: Tab 0 ratings
1 star 2 stars 3 stars 4 stars 5 stars
comments

Insane Tab

insane 
by frozen fire
written by tim lindberg
standard tuning
distortion throughout song

intro 
(2 times)

|---------------------------------------------------------|
|---------------------------------------------------------|
|--5-5-5-5-5-5-----------8-8-8-8-8-8----------------------|
|--5-5-5-5-5-5-6-6-6-6-x-8-8-8-8-8-8-8-8-8-8-x------------|
|--3-3-3-3-3-3-6-6-6-6-x-6-6-6-6-6-6-8-8-8-8-x------------|
|--------------4-4-4-4-x-------------6-6-6-6-x------------|

verse 1 
palm muted
(4 times)

|---------------------------------------------------------|
|---------------------------------------------------------|
|--7--7--7--7-------------10-10-10-10---------------------|
|--7--7--7--7--8--8--8--8-10-10-10-10-10-10-10-10---------|
|--5--5--5--5--8--8--8--8--8--8--8--8-10-10-10-10---------|
|--------------6--6--6--6--------------8--8--8--8---------|

chorus
(5 times)
[ Tab from: http://www.guitartabs.cc/tabs/f/frozen_fire/insane_tab.html ]
|---------------------------------------------------------|
|---------------------------------------------------------|
|--5-5-5-5-5-5-----------8-8-8-8-8-8----------------------|
|--5-5-5-5-5-5-6-6-6-6-x-8-8-8-8-8-8-8-8-8-8-x------------|
|--3-3-3-3-3-3-6-6-6-6-x-6-6-6-6-6-6-8-8-8-8-x------------|
|--------------4-4-4-4-x-------------6-6-6-6-x------------|

interlude
(2 times)

|---------------------------------------------------------|
|---------------------------------------------------------|
|--7----------------------10------------------------------|
|--7-----------8----------10----------10------------------|
|--5-----------8-----------8----------10------------------|
|--------------6-----------------------8------------------|

verse 2
palm muted
(4 times)

|---------------------------------------------------------|
|---------------------------------------------------------|
|--7--7--7--7-------------10-10-10-10---------------------|
|--7--7--7--7--8--8--8--8-10-10-10-10-10-10-10-10---------|
|--5--5--5--5--8--8--8--8--8--8--8--8-10-10-10-10---------|
|--------------6--6--6--6--------------8--8--8--8---------|

chorus 
(10 times)

|---------------------------------------------------------|
|---------------------------------------------------------|
|--5-5-5-5-5-5-----------8-8-8-8-8-8----------------------|
|--5-5-5-5-5-5-6-6-6-6-x-8-8-8-8-8-8-8-8-8-8-x------------|
|--3-3-3-3-3-3-6-6-6-6-x-6-6-6-6-6-6-8-8-8-8-x------------|
|--------------4-4-4-4-x-------------6-6-6-6-x------------|

(let last note ring on tenth time)

have lots of fun with this awesome song!!!!!
Comments