From First To Last - Waltz Moore Chords & Tabs

 

Waltz Moore Chords & Tabs

From First To Last Chords & Tabs

Version: 3 Type: Tab

Waltz Moore Tab

|--9--4----------------------------1------------|
| -------1--3-4-3--0--4--3--4-----4--3----------|
|-----------------------------------------------|
|-----------------------------------------------|
|-----------------------------------------------|
|-----------------------------------------------|

|--9--4----------------------------1------------|
|-------1--3-4-3--0--4--3--4--------------------|
|-----------------------------------------------|
|-----------------------------------------------|
|-----------------------------------------------|
|-----------------------------------------------|
[ Tab from: http://www.guitartabs.cc/tabs/f/from_first_to_last/waltz_moore_tab_ver_3.html ]