From First To Last - Secrets Dont Make Friends Chords & Tabs

 

Secrets Dont Make Friends Chords & Tabs

From First To Last Chords & Tabs

Version: 2 Type: Tab 0 ratings
1 star 2 stars 3 stars 4 stars 5 stars
comments

Secrets Dont Make Friends Tab

tuned in a Drop D tuning

Guitar 1 (right speaker)
|---------------------|
|---------------------|
|--8~-----------------|
|--0~-------x\\\\\\---|
|-----------x\\\\\\---|
|-----------x\\\\\\---|

|------------------------------------------|
|------------------------------------------|
|--101010--10101010--109-9-9-9--/14-14-14--|
|--x-x-x---x-x-x-x---x-x-x-x-x--/x--x--x---|
|--8-8-8---8-8-8-8---8-7-7-7-7--/12-12-12--|
|------------------------------------------|

|-------------------------------x-x-x------|
|-------------------------------x-x-x------|
|--101010--10101010--109-9-9-9--x-x-x---5*-|
|--x-x-x---x-x-x-x---x-x-x-x-x--x-x-x-3*---|
|--8-8-8---8-8-8-8---8-7-7-7-7--x-x-x------|
|-------------------------------x-x-x------|
Verse 1
|------------------------| x2
|------------------------|
|--7~~----9~-10~~---12~--|
|------------------------|
|------------------------|
|------------------------|
Verse 2
|----------------------------------------------------|
|----------------------------------------------------|
|---------2h3p2--------------------2h3p3-------------|
|--00-2h3-------3-2p0-2h3---33-2h3-------3-2p0-2h3---|
|--00-----------------------11-----------------------|
|--00------------------------------------------------|
PM ..                       ..
Chorus
|--------------------------------------------| x4
|--------------------------------------------|
|--10-1010-1010-1010--/15-15--14-14--12--14--|
|--x--x-x--x-x--x-x---/x--x---x--x---x---x---|
|--8--8-8--8-8--8-8---/13-13--12-12--10--12--|
|--------------------------------------------|
After chorus part
|--------------------------------------------|
|--------------------------------------------|
|--------------------------------------------|
|--0-0-0--0-8-8-8--8-10-10-10--10-5x-5x-5x---|
|--0-0-0--0-8-8-8--8-10-10-10--10-5x-5x-5x---|
|--0-0-0--0-8-8-8--8-10-10-10--10-5x-5x-5x---|

|-------------------------------x-x-x------|
|-------------------------------x-x-x------|
|--101010--10101010--109-9-9-9--x-x-x---5*-|
|--x-x-x---x-x-x-x---x-x-x-x-x--x-x-x-3*---|
|--8-8-8---8-8-8-8---8-7-7-7-7--x-x-x------|
|-------------------------------x-x-x------|

|------------------------------------------|
|------------------------------------------|
|--101010--10101010--109-9-9-9--/14-14-14--|
|--x-x-x---x-x-x-x---x-x-x-x-x--/x--x--x---|
|--8-8-8---8-8-8-8---8-7-7-7-7--/12-12-12--|
|------------------------------------------|

|-------------------------------x-x-x------|
|-------------------------------x-x-x------|
|--101010--10101010--109-9-9-9--x-x-x---5*-|
|--x-x-x---x-x-x-x---x-x-x-x-x--x-x-x-3*---|
|--8-8-8---8-8-8-8---8-7-7-7-7--x-x-x------|
|-------------------------------x-x-x------|

Verse 1 x2
Verse 2 x2
Chorus  x4
[ Tab from: http://www.guitartabs.cc/tabs/f/from_first_to_last/secrets_dont_make_friends_tab_ver_2.html ]
|----------------------------------------------| x4
|----------------------------------------------|
|----------------------------------------------|
|--0-0--------0-0-----7p0--3x-3x-3x-3x-3x-3x---|
|--0-0--------0-0-5p0------3x-3x-3x-3x-3x-3x---|
|--0-0--------0-0----------3x-3x-3x-3x-3x-3x---|
PM . .        . .  
Breakdown.
|------------------------------------------------| x4
|------------------------------------------------|
|------------------------------------------------|
|--0-0-----7p0--0-0-----7p0--3x-3x-3x-3x-3x-3x---|
|--0-0-5p0------0-0-5p0------3x-3x-3x-3x-3x-3x---|
|--0-0----------0-0----------3x-3x-3x-3x-3x-3x---|
PM . .          . .  
Acoustic part
|--5-----5-----5-----5-----6-----5-----3-----5-------|
|----------------------------------------------------|
|----3-----3-----3-----3-----3-----3-----3-----3-----|
|------5-----5-----5-----5-----5-----5-----5-----5---|
|----------------------------------------------------|
|----------------------------------------------------|

Chorus x4

then listen closely and it starts doing this
|-----------------------------------------------------------|
|-----------------------------------------------------------|
|--141414141414--151515151515--141414141414--121212121212---|
|--x-x-x-x-x-x---x-x-x-x-x-x---x-x-x-x-x-x---x-x-x-x-x-x----|
|--121212121212--131313131313--121212121212--101010101010---|
|-----------------------------------------------------------|

|--------------------------------------------------------------------|
|------------------------------15-15-15-15-15-15-15b15b15b15b15b-15--|
|--141414141414--151515151515----------------------------------------|
|--x-x-x-x-x-x---x-x-x-x-x-x-----------------------------------------|
|--121212121212--131313131313----------------------------------------|
|--------------------------------------------------------------------|

|------------------------------------------------------| x4
|------------------------------------------------------|
|----------------------------------------2h3p2---5-----|
|--0-0------7p0--0-0------7p0--3x-3x-3x--------3---2---|
|--0-0--5p0------0-0--5p0------3x-3x-3x----------------|
|--0-0-----------0-0-----------3x-3x-3x----------------|
PM . .           . .
|------------------------------------------------------|
|------------------------------------------------------|
|----------------------------------------2h3p2---5-----|
|--0-0~~---------0-0~~---------3x-3x-3x--------3---2---|
|--0-0~~---------0-0~~---------3x-3x-3x----------------|
|--0-0~~---------0-0~~---------3x-3x-3x----------------|
PM . .           . .
|-----------------------------------------------------------|
|-----------------------------------------------------------|
|----------------------------------------2h3p2-----5~-------|
|--0-0~~---------0-0~~---------3x-3x-3x---------3-----2~----|
|--0-0~~---------0-0~~---------3x-3x-3x---------------------|
|--0-0~~---------0-0~~---------3x-3x-3x---------------------|

and that's all for that guitar.
If you want me to tab out the other guitar (the left speaker)
just send me an e-mail at thricefan776@yahoo.com
Comments