From First To Last - Secrets Dont Make Friends Chords & Tabs

 

Secrets Dont Make Friends Chords & Tabs

From First To Last Chords & Tabs

Version: 1 Type: Tab 0 ratings
1 star 2 stars 3 stars 4 stars 5 stars
comments

Secrets Dont Make Friends Tab

From First To Last
Secrets Don't Make Friends
Robert Lydecker (that guy with those tight ass pants)
Tunning: Drop D

Intro
Guitar 1
e|-------------------------------------------------------------|
B|-------------------------------------------------------------|
G|-----10---10---9---7x7x-7x---10---10---9---x-x-x-5*--------|
D|-0~---0----8---7---5x5x-5x----0----8---7---x-x-x-5*--------|
A|-0~---0----8---7---5x-5x-5x----0----8---7---x-x-x-5*--------|
D|-0~---0----8---7---5x-5x-5x----0----8---7---x-x-x------------|

Intro
Guitar 2
e|-------------------------------------------------------------|
B|-------------------------------------------------------------|
G|-----10---10---9---7x-7x-7x---10---10---9---x-x-x------------|
D|-0~---x----x---x----------------------------x-x-x------------|
A|-0~---8----8---7--5x-5x-5x----8----8---7---x-x-x------------|
D|-0~----------------------------------------------------------|

Verse
Guitar 1
e|-----------------------------------------------------------------------|
B|-----------------------------------------------------------------------|
G|--7~-----9~-----10~------12~-----7~-----9~-----10~------12~------------|
D|------------------------------------------------------------------0~---|
A|------------------------------------------------------------------0~---|
D|------------------------------------------------------------------0~---|

Verse
Guitar 2 (I think this is palm muted, but i'm not sure)
e|-------------------------------------------------------------------------|
B|-------------------------------------------------------------------------|
G|----------10p0-9p0-7p09p0--------------10p0-9p0-7p09p0--------9~-------|
D|-------7p0---------------------------7p0------------------------x--------|
A|----------------------------------------------------------------7~-------|
D|-------------------------------------------------------------------------|
[ Tab from: http://www.guitartabs.cc/tabs/f/from_first_to_last/secrets_dont_make_friends_tab.html ]
Chorus (Chords)
Guitar 1
e|-----------------------------|
B|-----------------------------|
G|-----------------------------|
D|--8---0---10---8---12---10---|
A|--8---0---10---8---12---10---|
D|--8---0---10---8---12---10---|

Chorus (Chords)
Guitar 2
e|-------------------------------|
B|-------------------------------|
G|-10---15---14---12---10--10---|
D|--x----x----x----x----x----x---|
A|--8---13--12--10----8----8---|
D|-------------------------------|

Breakdown
Guitar 1 (Left Speaker)
e|---------------------------------------------------|
B|---------------------------------------------------|
G|---------------------------------------------------|
D|-0-0-----7p0--------------3x-3x-3x-3x-3x-3x-3x-----|
A|-0-05p0------------------3x-3x-3x-3x-3x-3x-3x-----|
D|-0-0----------------------3x-3x-3x-3x-3x-3x-3x-----|
   . .                      
  
Breakdown
Guitar 2 (Right Speaker)
e|---------------------------------------------------|
B|---------------------------------------------------|
G|---------------------------------------------------|
D|-------------0-0-----7p0--3x-3x-3x-3x-3x-3x-3x-----|
A|------------0-0-5p0------3x-3x-3x-3x-3x-3x-3x-----|
D|-------------0-0----------3x-3x-3x-3x-3x-3x-3x-----|
               . .
(When he starts to scream both guitars start playing the same thing) 

Acoustic part
Guitar 1
e|-----------------------------------------|
B|-----------------------------------------|
G|-----------------------------------------|
D|-8-----0-----10-----8-----0--------------|
A|-8-----0-----10-----8-----0--------------|
D|-8-----0-----10-----8-----0--------------|

Guitar 2 
e|-----------------------------------------------------------------------|
B|10--10---10---10--10--10--10--10--10---8---8----8----8----8---8--10----|
G|--10--10---10---10--10--10--10--10--10--10---10---10---10--10--10--10--|
D|-----------------------------------------------------------------------|X2
A|-----------------------------------------------------------------------|
E|-----------------------------------------------------------------------|


There's an outro but i'm to lazy to tab it.
Comments