From First To Last - Ride The Wings Of Pestilence Chords & Tabs

 

Ride The Wings Of Pestilence Chords & Tabs

From First To Last Chords & Tabs

Version: 6 Type: Tab 0 ratings
1 star 2 stars 3 stars 4 stars 5 stars
comments

Ride The Wings Of Pestilence Tab

   
-------------------------------------------------------------------------------
	       Ride The Wings Of Pestilence - From First To Last
-------------------------------------------------------------------------------
Tabbed by: Killthelights (Harrison)
Email: Fsas_6996@hotmail.com

Tuning: Drop D

                              Guitar 1

   Intro  
e|---------------------------------------------------------------------------|
B|---------------------------------------------------------------------------|
G|-12-12-12-12-------------12-12-12-12-------------14-14-14-14---------------|
D|-------------12-12-12-12-------------12-12-12-12--------------12-12-12-12--|
A|---------------------------------------------------------------------------|
E|---------------------------------------------------------------------------|

e|---------------------------------------------------------------------------|
B|---------------------------------------------------------------------------|
G|-15-15-15-15---------------Play 4 times------------------------------------|
D|-------------12-12-12-12---------------------------------------------------|
A|---------------------------------------------------------------------------|
E|---------------------------------------------------------------------------|

e|--------------------------------------------------------|---Play 8 times---|
B|--------------------------------------------------------|------------------|
G|-15-15-14h15-15-14-15 14---19-17-15------Play 4 times---|-19-17-15---------|
D|------------------------------------19------------------|----------19------|
A|--------------------------------------------------------|------------------|
E|--------------------------------------------------------|------------------|
      Verse (both guitars)
e|---------------------------------------------------------------------------|
B|---------------------------------------------------------------------------|
G|---------------------------------------------------------------------------|
D|-5-5-5-5--5--5-5-5-5--5-5-5-5--5-5-5-5--1-1-1-1--1--1-1-1-1--1-1-1-1--1-1-1-1-|
A|-5-5-5-5--5--5-5-5-5--5-5-5-5--5-5-5-5--1-1-1-1--1--1-1-1-1--1-1-1-1--1-1-1-1-|
E|-5-5-5-5--5--5-5-5-5--5-5-5-5--5-5-5-5--1-1-1-1--1--1-1-1-1--1-1-1-1--1-1-1-1-|
      Pre-Chorus
e|---------------------------------------------------------------------------|
B|---------------------------------------------------------------------------|
G|---------------------------------------------------------------------------|
D|-------12-----------12-----------12-----------12-----------17-----------17-|
A|-12-12----12--12-12----12--12-12----12--12-12----12--15-15----15--15-15----15-|
E|---------------------------------------------------------------------------|

e|---------------------------------------------------------------------------|
B|---------------------------------------------------------------------------|
G|----------------17-------15-------14~--------------------------------------|
D|-------17------------------------------------------------------------------|
A|-15-15----15-15----15-15----15-15------------------------------------------|
E|---------------------------------------------------------------------------|
      Chorus (both guitars)
e|---------------------------------------------------------------------------|
B|---------------------------------------------------------------------------|
G|----------------------------------------------8-8-8-8-8-8------------------|
D|-5-5-5-5-5-5--1-1-1-1-1-1--10-10-10-10-10-10--8-8-8-8-8-8--5-5-5-5-5-5-----|
A|-5-5-5-5-5-5--1-1-1-1-1-1--10-10-10-10-10-10--6-6-6-6-6-6--5-5-5-5-5-5-----|
E|-5-5-5-5-5-5--1-1-1-1-1-1--10-10-10-10-10-10---------------5-5-5-5-5-5-----|
[ Tab from: http://www.guitartabs.cc/tabs/f/from_first_to_last/ride_the_wings_of_pestilence_tab_ver_6.html ]
e|---------------------------------------------------------------------------|
B|---------------------------------------------------------------------------|
G|--------------------8-8-8--------7-7-7-----play 2 times--------------------|
D|-1-1-1-1-1-1---------------------------------------------------------------|
A|-1-1-1-1-1-1---------------------------------------------------------------|
E|-1-1-1-1-1-1--0-0-0--------0-0-0-------------------------------------------|

     2nd Verse 
e|-5-5-5-5-5-5--5-5-5-5-5-5--------------------------------------------------|
B|-6-6-6-6-6-6--5-5-5-5-5-5--11-11-11-11-11-11--10-10-10-10-10-10------------|
G|-7-7-7-7-7-7--7-7-7-7-7-7--12-12-12-12-12-12--12-12-12-12-12-12------------|
D|---------------------------------------------------------------------------|
A|---------------------------------------------------------------------------|
E|---------------------------------------------------------------------------|
        Outro 
e|-----------------------------------|----11-11-11-11-11---------------------|
B|----15-15-15-15-15-15-15-15-15-15--|----15-15-15-15-15-----15-15-15-15-15-15-15-15-15-15-|
G|----12-12-12-12-12-12-12-12-12-12--|----12-12-12-12-12-----12-12-12-12-12-12-12-12-12-12-|
D|-0---------------------------------|-0------------------0------------------|
A|-0---------play 4 times------------|-0------------------0--play 4 times----|
E|-0---------------------------------|-0------------------0------------------|


                              Guitar 2
   Intro
e|---------------------------------------------------------------------------|
B|-------------------play 2 times--------------------------------------------|
G|-----------------------------------------------------------3-3-3-3-3-3-3-3-|
D|-1--1-1--1-1-1-1-1-1-1-1-1-1-1-1-1-1-1-1--5-5-5-5-5-5-5-5--3-3-3-3-3-3-3-3-|
A|-1--1-1--1-1-1-1-1-1-1-1-1-1-1-1-1-1-1-1--5-5-5-5-5-5-5-5--1-1-1-1-1-1-1-1-|
E|-1--1-1--1-1-1-1-1-1-1-1-1-1-1-1-1-1-1-1--5-5-5-5-5-5-5-5------------------|

e|------------------------------------------------------------|--------------|
B|------------play 2 times------------------------------------|--------------|
G|----------------------------------------------3-3-3-x-x-3-x-|--------------|
D|-1-1-1-x-x-1-x--1-1-1-x-x-1-x--5-5-5-x-x-5-x--3-3-3-x-x-3-x-|-1----1-------|
A|-1-1-1-x-x-1-x--1-1-1-x-x-1-x--5-5-5-x-x-5-x--1-1-1-x-x-1-x-|-1----1-------|
E|-1-1-1-x-x-1-x--1-1-1-x-x-1-x--5-5-5-x-x-5-x----------------|-1----1-------|

       Verse and Chorus are the same as above ^^

    2nd verse
e|-------------|-------------|-------------------------------------------------|
B|-times 4-----|-times 4-----|---------repeat entire staff 4 times-------------|
G|-------------|-------------|-------------------------------------------------|
D|-5-5-5-x-x-x-|-1-1-1-x-x-x-|-------------------------------------------------|
A|-5-5-5-x-x-x-|-1-1-1-x-x-x-|-1p0---------------------------------------------|
E|-5-5-5-x-x-x-|-1-1-1-x-x-x-|-----3p0-0h1-------------------------------------|

   Outro
e|---------------------------------------------------------------------------|
B|---------------------------------------------------------------------------|
G|---------------------------------------------------------------------------|
D|-0----0----0----0----0----0----0-0-0----0-0-0----0----0----0-0-0-----------|
A|-0----0----0----0----0----0----0-0-0----0-0-0----0----0----0-0-0-----------|
E|-0----0----0----0----0----0----0-0-0----0-0-0----0----0----0-0-0-----------|

and thats pretty much it i tihnk...u can figure out when to play wut parts its
pretty straight forward

| /  slide up
| \  slide down
| h  hammer-on
| p  pull-off
| ~  vibrato
| +  harmonic
| x  Mute note
===============================================================================
Comments