From First To Last - Ride The Wings Of Pestilence Chords & Tabs

 

Ride The Wings Of Pestilence Chords & Tabs

From First To Last Chords & Tabs

Version: 4 Type: Tab 0 ratings
1 star 2 stars 3 stars 4 stars 5 stars
comments

Ride The Wings Of Pestilence Tab

   
From First To Last - Ride The Wings Of Pestilence

Intro  0:05
E|--------------------|
B|--------------------|
G|--------------------|
D|1~-11-<---------->--|
A|1~-11-<---------->--|
D|1~-11---|

4 times, with a lil change in strumming the 3rd and 4th time 0:10
E|---------------------------------------|
B|---------------------------------------|
G|---------------------------------------|
D|111111111111111/55555555/88888888------|
A|111111111111111/55555555/88888888------|
D|111111111111111/55555555/88888888------|

  0:30
E|----------|
B|----------|
G|----------|
D|1~--1~----|
A|1~--1~----|
D|1~--1~----|

  Verse 2x  0:35
E|-----------------------------------------------|
B|-----------------------------------------------|
G|-----------------------------------------------|
D|5555-55-5555-5555-5555-1111-11-1111-1111-1111--|
A|5555-55-5555-5555-5555-1111-11-1111-1111-1111--|
D|5555-55-5555-5555-5555-1111-11-1111-1111-1111--|
P.M---    ---- ---- ---- ----    ---- ---- ----

Chorus 2x 1:04
E|------------------------------------------------|
B|------------------------------------------------|
G|----------5555-7777-----------------------------|
D|5555-1111-5555-7777-88888888-000-870 000 575----|
A|5555-1111-3333-5555-88888888-000-----000--------|
D|5555-1111-----------88888888-000-----000--------|
                       
[ Tab from: http://www.guitartabs.cc/tabs/f/from_first_to_last/ride_the_wings_of_pestilence_tab_ver_4.html ]
2x   1:26
E|------------------------------------------|
B|------------------------------------------|
G|------------------------------------------|
D|5555555-5555555-1111111-111111------------|
A|5555555-5555555-1111111-111111-1-0--------|
D|5555555-5555555-1111111-111111----3h5-1h3-|

 2x  1:43
E|----------------------------------------------------|
B|----------------------------------------------------|
G|----------------------------------------------------|
D|5555x-5555x-5555x-5555-1111x-1111x-1111x------------|
A|5555x-5555x-5555x-5555-1111x-1111x-1111x-1-0--------|
D|5555x-5555x-5555x-5555-1111x-1111x-1111x----3h5-1h3-|

2:27
E|----------------------------------|
B|----------------------------------|
G|----------------------------------|
D|5555555-5555555-5555555-5555555---|
A|5555555-5555555-5555555-5555555---|
D|5555555-5555555-5555555-5555555---|


Chorus 4x 2:36
E|------------------------------------------------|
B|------------------------------------------------|
G|----------5555-7777-----------------------------|
D|5555-1111-5555-7777-88888888-000-870 000 575----|
A|5555-1111-3333-5555-88888888-000-----000--------|
D|5555-1111-----------88888888-000-----000--------|
                               ---     ---

Outro   
E|----|
B|----|
G|----|  I think you just palm mute this for the outro...
D|0-0-|
A|0-0-|
D|0-0-|
  - -

There ya go... i think it sounds decent... send all hate mail here... Nachos-n-cheeze@sbcglobal.net Adios!  

Nachos
Comments