From First To Last - Note To Self Chords & Tabs

 

Note To Self Chords & Tabs

From First To Last Chords & Tabs

Version: 5 Type: Tab 0 ratings
1 star 2 stars 3 stars 4 stars 5 stars
comments

Note To Self Tab

Sorry I have not registered, but don't think this is a bad tab because of it


|--------------------------------------------| 2x (Video intro)
|--------------------------------------------|
|--------5---------3-------------------------|           
|--5---5-----5---5---------------------------|
|0---0-----0---0-----------------------------|
|--------------------------------------------|

|--------------------------------------------| x2
|--------------------------------------------|
|--------7----------5------------------------|
|--7---7-----7---7---------------------------|
|0---0-----0---0-----------------------------|
|--------------------------------------------|

|--------------------------------------------| 4x (Song intro)
|--------------------------------------------|
|------------------------55555555555555555555|
|--22222222222222222222--55555555555555555555|
|--22222222222222222222--33333333333333333333|
|--22222222222222222222----------------------|
   ....................  ....................

|-------------------------| 1x
|-------------------------|
|------7~-----4-------4---|
|----9------2-------2-----|
|--7------3-------0-------|
|-------------------------|

|-----------------------| 2x
|-----------------------|
|----------5------------|
|--2-------5-(32X)------|
|--2-(32X)-3------------|
|--2--------------------|

|----------------| 4x
|----------------|
|--555555-5-5-5--| 
|--555555-5-5-5--|
|--333333-3-3-3--|
|----------------|

|--------------------------------------------|  2x
|--------------------------------------------|
|--------------------------------------------|
|------------------00000-0-0-0-00000-0-0-0--|
|--2222222-3333333--00000-0-0-0-00000-0-0-0--|
|-------------------00000-0-0-0-00000-0-0-0--|
                    .....   .   .....   .
[ Tab from: http://www.guitartabs.cc/tabs/f/from_first_to_last/note_to_self_tab_ver_5.html ]
|------------------------------------------------------| 2x
|------------------------------------------------------|
|--1212121212-111111111111-----------------------------|
|--xxxxxxxxxx-xxxxxxxxxxxx--00000--0-0-0-00000--0-0-0--|
|--1010101010999999999999--00000--0-0-0-00000--0-0-0--|
|---------------------------00000--0-0-0-00000--0-0-0--|
                            .....   .    .....    .

|------|
|------|
|------|
|------|
|------|
|------|

|----0---0-----0----0----0---0-----0----0---0---0----0---0--| 2x
|--8---8----10---12----8---8----10---12---13--12--10---12---|
|-----------------------------------------------------------|
|-----------------------------------------------------------|
|-----------------------------------------------------------|
|-----------------------------------------------------------|

|--------------------------    -------------------------| 2x
|--------------------------    -------------------------|
|--1212121212121212-1111---(2x)-------------------------|
|--xxxxxxxxxxxxxxxx--xx----    -33333--0000--33333-0000-|
|--1010101010101010--99----    -33333--0000--33333-0000-|
|--------------------------    -33333--0000--33333-0000-|

|------|
|------|
|------|
|------|
|------|
|------|

|--------------------------    -------------------------| 2x
|--------------------------    -------------------------|
|--1212121212121212-1111---(2x)-------------------------|
|--xxxxxxxxxxxxxxxx--xx----    -33333--0000--33333-0000-|
|--1010101010101010--99----    -33333--0000--33333-0000-|
|--------------------------    -33333--0000--33333-0000-|

|-------------------------| 1x
|-------------------------|
|------7~-----4-------4---|
|----9------2-------2-----|
|--7------3-------0-------|
|-------------------------|

|-----------------------| 2x
|-----------------------|
|----------5------------|
|--2-------5-(32X)------|
|--2-(32X)-3------------|
|--2--------------------|

|----------------------------| 3x |---------------------------------|1x
|----------------------------|    |---------------------------------|
|-----------------------9~---|    |-----------------------9-9-9-9-9-|
|--00000000-0~-00000000-x~---|    |--00000000-0~-00000000-x-x-x-x-x-|
|--00000000-0~-00000000-7~---|    |--00000000-0~-00000000-7-7-7-7-7-|
|--00000000-0~-00000000------|    |--00000000-0~-00000000-----------|
   ........    ........


Ahh you did it!   That was my first tab so just tell me if I did anything wrong at
carcoll_1_3@hotmail.com
Comments