From First To Last - Note To Self Chords & Tabs

 

Note To Self Chords & Tabs

From First To Last Chords & Tabs

Version: 3 Type: Tab 0 ratings
1 star 2 stars 3 stars 4 stars 5 stars
comments

Note To Self Tab

From First To Last
Note To Self 

Tabbed by: EdDy
Email: ishouldofknownthatyouwereakiller@yahoo.com
Tuned: Drop D

~ = Let it ring
. = Palm Mute
h = Hammer on
p = Pull-off
/ \ = Slide
* = Harmonics

Guitar 1 (Rhythm guitar)


00:00 - 00:16
|--------------------------------------------| 4x
|--------------------------------------------|
|------------------------55555555555555555555|
|--22222222222222222222--55555555555555555555|
|--22222222222222222222--33333333333333333333|
|--22222222222222222222----------------------|
   ....................  ....................

00:17 - 00:21
|-------------------------| 1x
|-------------------------|
|------7~-----4-------4---|
|----9------2-------2-----|
|--7------3-------0-------|
|-------------------------|

00:22 - 00:42
|-----------------------| 2x
|-----------------------|
|----------5------------|
|--2-------5-(32X)------|
|--2-(32X)-3------------|
|--2--------------------|

00:43 - 00:50
|----------------| 4x
|----------------|
|--555555-5-5-5--| 
|--555555-5-5-5--|
|--333333-3-3-3--|
|----------------|

00:51 - 1:06
|--------------------------------------------|  2x
|--------------------------------------------|
|--------------------------------------------|
|------------------00000-0-0-0-00000-0-0-0--|
|--2222222-3333333--00000-0-0-0-00000-0-0-0--|
|-------------------00000-0-0-0-00000-0-0-0--|
                    .....   .   .....   .

1:07 - 1:22
|------------------------------------------------------| 2x
|------------------------------------------------------|
|--1212121212-111111111111-----------------------------|
|--xxxxxxxxxx-xxxxxxxxxxxx--00000--0-0-0-00000--0-0-0--|
|--1010101010999999999999--00000--0-0-0-00000--0-0-0--|
|---------------------------00000--0-0-0-00000--0-0-0--|
                            .....   .    .....    .

1:23 - 1:31
|------|
|------|
|------|
|------|
|------|
|------|
[ Tab from: http://www.guitartabs.cc/tabs/f/from_first_to_last/note_to_self_tab_ver_3.html ]
1:32 - 1:47
|----0---0-----0----0----0---0-----0----0---0---0----0---0--| 2x
|--8---8----10---12----8---8----10---12---13--12--10---12---|
|-----------------------------------------------------------|
|-----------------------------------------------------------|
|-----------------------------------------------------------|
|-----------------------------------------------------------|

1:48 - 2:08
|--------------------------    -------------------------| 2x
|--------------------------    -------------------------|
|--1212121212121212-1111---(2x)-------------------------|
|--xxxxxxxxxxxxxxxx--xx----    -33333--0000--33333-0000-|
|--1010101010101010--99----    -33333--0000--33333-0000-|
|--------------------------    -33333--0000--33333-0000-|

2:09 - 2:11
|------|
|------|
|------|
|------|
|------|
|------|

2:12 - 2:32
|--------------------------    -------------------------| 2x
|--------------------------    -------------------------|
|--1212121212121212-1111---(2x)-------------------------|
|--xxxxxxxxxxxxxxxx--xx----    -33333--0000--33333-0000-|
|--1010101010101010--99----    -33333--0000--33333-0000-|
|--------------------------    -33333--0000--33333-0000-|

2:33 - 2:36
|-------------------------| 1x
|-------------------------|
|------7~-----4-------4---|
|----9------2-------2-----|
|--7------3-------0-------|
|-------------------------|

2:37 - 2:57
|-----------------------| 2x
|-----------------------|
|----------5------------|
|--2-------5-(32X)------|
|--2-(32X)-3------------|
|--2--------------------|

2:58 - 3:19
|----------------------------| 3x |---------------------------------|1x
|----------------------------|    |---------------------------------|
|-----------------------9~---|    |-----------------------9-9-9-9-9-|
|--00000000-0~-00000000-x~---|    |--00000000-0~-00000000-x-x-x-x-x-|
|--00000000-0~-00000000-7~---|    |--00000000-0~-00000000-7-7-7-7-7-|
|--00000000-0~-00000000------|    |--00000000-0~-00000000-----------|
   ........    ........
3:20 - 3:53
|------|
|------|
|------|
|------|
|------|
|------|

This is my first tab...
im sure its 100%...
you gotta listen closely...
some of this stuff you cant hear...
I will tab lead guitar later...
see yah...
Comments