From First To Last - Note To Self Chords & Tabs

 

Note To Self Chords & Tabs

From First To Last Chords & Tabs

Version: 2 Type: Bass Tab

Note To Self Bass Tab

Intro 2x
G|-------------------------------------------------------|
D|-------------------------------------------------------|
A|----------------------------33333--33333--33333--33333-|
D|22222--22222--22222--22222-----------------------------|

Pre-verse
G|-----------|
D|-----------|
A|----3~-----|
D|2~------7~-|

Chorus
G|----------------------------------------------7-6-5-----------|
D|------------------------------3h5--3h5--------------7-6-5-----|
A|--------------------3333--33------------3333---------------7-5|
D|22222222--22222222--------------------------------------------|

G|----------------------------------------------------|
D|--------------------------3h5--3h5--3h5--------44-55|
A|--------------------3333-----------------3333-------|
D|22222222--22222222----------------------------------|

Pre-verse 4x
G|------------|
D|------------|
A|33333--3-3-3|
D|------------|

Verse
G|---------------------------------------------------|
D|--------5-3------------------------5-4-------------|
A|2~--3~---------------------2~--3~------------------|
D|-------------22222--22222---------------22222-22222|

Verse Variation
G|----------------------------------------------------------------|
D|--------------5-3------------------------------5-4--------------|
A|222222--3333---------------------222222--3333-------------------|
D|-------------------22222--22222---------------------22222--22222|

Bridge
G|----------------------------------------------------------------------|
D|----------------------------------------------------------------------|
A|-------------2-1-------------5-4-3-------------7-6--------------------|
D|2-22-2-22-22-----2-3-5-55-55-------4-5-7-77-77-----9-7-7-9-5-55-55-7h9|
[ Tab from: http://www.guitartabs.cc/tabs/f/from_first_to_last/note_to_self_btab_ver_2.html ]
Bridge Ending 2x
G|---------------------------------------------------------------|
D|---------------------------------------------------------------|
A|--------2-1-------------4-3-------------7-6-------------2-1----|
D|2-22-22-----2-3-5-55-55-----4-5-7-77-77-----9-7-5-55-55-----2-3|

Post Bridge 2x
G|----------------------------------------------------------------|
D|------------------------55-5h7p5--------------------------------|
A|------------------33333-----------------------------------------|
D|22222-22/14-14-14----------------55-55-55-00-000-55-55-55-00-000|

*REST*

Post Bridge Variation
G|------------------------------------------------------------------|
D|------------------------55-5h7p5----------------------------------|
A|------------------33333-------------------------------------------|
D|/22222-222/14-14-14----------------55-55-55-00-000-55-55-55-00-000|

Post Bridge
G|----------------------------------------------------------------|
D|------------------------55-5h7p5--------------------------------|
A|------------------33333-----------------------------------------|
D|22222-22/14-14-14----------------55-55-55-00-000-55-55-55-00-000|

Pre Verse Variation
G|---------------------|
D|---------------------|
A|------------3333-----|
D|22222-22222------7777|

Chorus
G|----------------------------------------------7-6-5-----------|
D|------------------------------3h5--3h5--------------7-6-5-----|
A|--------------------3333--33------------3333---------------7-5|
D|22222222--22222222--------------------------------------------|

G|----------------------------------------------------|
D|--------------------------3h5--3h5--3h5--------44-55|
A|--------------------3333-----------------3333-------|
D|22222222--22222222----------------------------------|

Ending 3x
G|----------------------|
D|-------------------5~\|
A|-----------------3----|
D|222222-2~-222222------|

End
G|------------------------|
D|------------------------|
A|-----------------33-33-3|
D|222222-2~-222222--------|