From First To Last - Mothersound Chords & Tabs

 

Mothersound Chords & Tabs

From First To Last Chords & Tabs

Version: 2 Type: Tab

Mothersound Tab

   
band-from first to last
song-mothersound
guitar 1-travis
guitar 2-matt
they play it drop D on the record but live is drop C, okay this is what i have so far 
most of the song...
____________________________________
guitar 1-
(intro)
e ---------------------------------|
B ---------------------------------|
G ---------------------------------|
D -7--7--7--7-7-7-6--6--6--3-3-3---|
A -7--7--7--7-7-7-6--6--6--3-3-3---|
D -7--7--7--7-7-7-6--6--6--3-3-3---|

(chorus)
e ------------------------------------------------------------------|
B ------------------------------------------------------------------|
G ------------------------------------------------------------------|
D -7777777777777777666666666666666633333333333333332222222222222222-
A -7777777777777777666666666666666633333333333333332222222222222222-
D -7777777777777777666666666666666633333333333333332222222222222222-

e ------------------------------------------------------------------|
B ------------------------------------------------------------------|
G ------------------------------------------------------------------|
D -0000000000000000222222222222222233333333333333336666666666666666-
A -0000000000000000222222222222222233333333333333336666666666666666-
D -0000000000000000222222222222222233333333333333336666666666666666-

(verse)
e-------------------------------------------------------------------------|
B-------------------------------------------------------------------------|
G-------------------------------------------------------------------------|
D-7-7-7777-7-7-7777-7-7-7777-7-7-7777-7-7-7777-7-7-7777-6-6-6666-3-3-3333-|
A-7-7-7777-7-7-7777-7-7-7777-7-7-7777-7-7-7777-7-7-7777-6-6-6666-3-3-3333-|
D-7-7-7777-7-7-7777-7-7-7777-7-7-7777-7-7-7777-7-7-7777-5-5-5555-2-2-2222-|

e-------------------------------------------------------------------------|
B-------------------------------------------------------------------------|
G-------------------------------------------------------------------------|
D-7-7-7777-7-7-7777-7-7-7777-7-7-7777-7-7-7777-7-7-7777-6-6-6666-3-3-3333-|
A-7-7-7777-7-7-7777-7-7-7777-7-7-7777-7-7-7777-7-7-7777-6-6-6666-3-3-3333-|
D-7-7-7777-7-7-7777-7-7-7777-7-7-7777-7-7-7777-7-7-7777-5-5-5555-2-2-2222-|

(chorus)
e ------------------------------------------------------------------|
B ------------------------------------------------------------------|
G ------------------------------------------------------------------|
D -7777777777777777666666666666666633333333333333332222222222222222-
A -7777777777777777666666666666666633333333333333332222222222222222-
D -7777777777777777666666666666666633333333333333332222222222222222-

e ------------------------------------------------------------------|
B ------------------------------------------------------------------|
G ------------------------------------------------------------------|
D -0000000000000000222222222222222233333333333333336666666666666666-
A -0000000000000000222222222222222233333333333333336666666666666666-
D -0000000000000000222222222222222233333333333333336666666666666666-

(bridge)
e--------------------------------------------|
B--------------------------------------------|
G--------------------------------------------|
D-7777777777777777-66666666-1010101010101010-|
A-7777777777777777-66666666-1010101010101010-|
D-7777777777777777-66666666-1010101010101010-|

e--------------------------------------------|
B--------------------------------------------|
G--------------------------------------------|
D-7777777777777777-66666666-1010101010101010-|
A-7777777777777777-66666666-1010101010101010-|
D-7777777777777777-66666666-1010101010101010-|

e-------------------------------------------|
B-------------------------------------------|
G-------------------------------------------|
D-7-7-7777-6-6-6666-7-7-7777-10-10-10101010-|
A-7-7-7777-6-6-6666-7-7-7777-10-10-10101010-|
D-7-7-7777-6-6-6666-7-7-7777-10-10-10101010-|

e-------------------------------------------|
B-------------------------------------------|
G-------------------------------------------|
D-7-7-7777-6-6-6666-7-7-7777-10-10-10101010-|
A-7-7-7777-6-6-6666-7-7-7777-10-10-10101010-|
D-7-7-7777-6-6-6666-7-7-7777-10-10-10101010-|

e--------------------------------|
B--------------------------------|
G--------------------------------|
D-7~-------6~-------7~-------10~-|
A-7~-------6~-------7~-------10~-|
D-7~-------6~-------7~-------10~-|

e---------------------------------------------------------------------------|
B---------------------------------------------------------------------------|
G---------------------------------------------------------------------------|
D-77-77-77-77-7-7-66-66-66-66-6-6-77-77-77-77-7-7-1010-1010-1010-1010-10-10-|
A-77-77-77-77-7-7-66-66-66-66-6-6-77-77-77-77-7-7-1010-1010-1010-1010-10-10-|
D-77-77-77-77-7-7-66-66-66-66-6-6-77-77-77-77-7-7-1010-1010-1010-1010-10-10-|

e---------------------------------------------|
B---------------------------------------------|
G---------------------------------------------|
D-77777777-66666666-77777777-1010101010101010-|
A-77777777-66666666-77777777-1010101010101010-|
D-77777777-66666666-77777777-1010101010101010-|

(chorus)
e ------------------------------------------------------------------|
B ------------------------------------------------------------------|
G ------------------------------------------------------------------|
D -7777777777777777666666666666666633333333333333332222222222222222-
A -7777777777777777666666666666666633333333333333332222222222222222-
D -7777777777777777666666666666666633333333333333332222222222222222-

e ------------------------------------------------------------------|
B ------------------------------------------------------------------|
G ------------------------------------------------------------------|
D -0000000000000000222222222222222233333333333333336666666666666666-
A -0000000000000000222222222222222233333333333333336666666666666666-
D -0000000000000000222222222222222233333333333333336666666666666666-

e ------------------------------------------------------------------|
B ------------------------------------------------------------------|
G ------------------------------------------------------------------|
D -7777777777777777666666666666666633333333333333332222222222222222-
A -7777777777777777666666666666666633333333333333332222222222222222-
D -7777777777777777666666666666666633333333333333332222222222222222-

e ------------------------------------------------------------------|
B ------------------------------------------------------------------|
G ------------------------------------------------------------------|
D -0000000000000000222222222222222233333333333333336666666666666666-
A -0000000000000000222222222222222233333333333333336666666666666666-
D -0000000000000000222222222222222233333333333333336666666666666666-

(outro)
e-----------------------------------------------------------------|
B-----------------------------------------------------------------|
G-----------------------------------------------------------------|
D-777------------666------------777------------101010----77777777-|
A-777------------666------------777------------101010----77777777-|
D-777------------666------------777------------101010----77777777-|
PM                                                       ........

e-----------------------------------------------------------------|
B-----------------------------------------------------------------|
G-----------------------------------------------------------------|
D-777------------666------------777------------101010----77777777-|
A-777------------666------------777------------101010----77777777-|
D-777------------666------------777------------101010----77777777-|
PM                                                       ........
[ Tab from: http://www.guitartabs.cc/tabs/f/from_first_to_last/mothersound_tab_ver_2.html ]
e-----------------------------------------------------------------|
B-----------------------------------------------------------------|
G-----------------------------------------------------------------|
D-777------------666------------777------------101010----77777777-|
A-777------------666------------777------------101010----77777777-|
D-777------------666------------777------------101010----77777777-|
PM                                                       ........

e-----------------------------------------------------------------|
B-----------------------------------------------------------------|
G-----------------------------------------------------------------|
D-777------------666------------777------------101010----77777777-|
A-777------------666------------777------------101010----77777777-|
D-777------------666------------777------------101010----77777777-|
PM                                                       ........

e------------------------------------------------------------------|
B------------------------------------------------------------------|
G------------------------------------------------------------------|
D-777-777-777-777-666------------777------------101010----77777777-|
A-777-777-777-777-666------------777------------101010----77777777-|
D-777-777-777-777-666------------777------------101010----77777777-|
PM    ... ... ...                                         ... ...
______________________________________________________________________
Guitar 2

(intro)
e ------------------------------------|
B ------------------------------------|
G ------------------------------------|
D -7--7--7--7-7-7-6--6--6--10-10-10---|
A -7--7--7--7-7-7-6--6--6--10-10-10---|
D -7--7--7--7-7-7-6--6--6--10-10-10---|

(chorus)
e ------------------------------------------------------------------|
B ------------------------------------------------------------------|
G ------------------------------------------------------------------|
D -7777777777777777666666666666666633333333333333332222222222222222-
A -7777777777777777666666666666666633333333333333332222222222222222-
D -7777777777777777666666666666666633333333333333332222222222222222-

e ------------------------------------------------------------------|
B ------------------------------------------------------------------|
G ------------------------------------------------------------------|
D -0000000000000000222222222222222233333333333333336666666666666666-
A -0000000000000000222222222222222233333333333333336666666666666666-
D -0000000000000000222222222222222233333333333333336666666666666666-

(verse)
e----------------------------------------------------------------------------------|
B----------------------------------------------------------------------------------|
G----------------------------------------------------------------------------------|
D-7-7-6h777-7-7-7777-7-7-6h777-7-7-7777-7-7-6h777-7-7-7777-6-6-6666-10-10-10101010-|
A-7-7-6h777-7-7-7777-7-7-6h777-7-7-7777-7-7-6h777-7-7-7777-6-6-6666-10-10-10101010-|
D-7-7-6h777-7-7-7777-7-7-6h777-7-7-7777-7-7-6h777-7-7-7777-6-6-6666-10-10-10101010-|

e----------------------------------------------------------------------------------|
B----------------------------------------------------------------------------------|
G----------------------------------------------------------------------------------|
D-7-7-6h777-7-7-7777-7-7-6h777-7-7-7777-7-7-6h777-7-7-7777-6-6-6666-10-10-10101010-|
A-7-7-6h777-7-7-7777-7-7-6h777-7-7-7777-7-7-6h777-7-7-7777-6-6-6666-10-10-10101010-|
D-7-7-6h777-7-7-7777-7-7-6h777-7-7-7777-7-7-6h777-7-7-7777-6-6-6666-10-10-10101010-|

(chorus)
e ------------------------------------------------------------------|
B ------------------------------------------------------------------|
G ------------------------------------------------------------------|
D -7777777777777777666666666666666633333333333333332222222222222222-
A -7777777777777777666666666666666633333333333333332222222222222222-
D -7777777777777777666666666666666633333333333333332222222222222222-

e ------------------------------------------------------------------|
B ------------------------------------------------------------------|
G ------------------------------------------------------------------|
D -0000000000000000222222222222222233333333333333336666666666666666-
A -0000000000000000222222222222222233333333333333336666666666666666-
D -0000000000000000222222222222222233333333333333336666666666666666-

(bridge)
e------------------------------------------------------|
B------------------------------------------------------|
G-----10101010999977--------10101010-9999-7777---------|
D-7777--------------10106666------------------10101010-|
A------------------------------------------------------|
D------------------------------------------------------|

e------------------------------------------------------|
B------------------------------------------------------|
G-----10101010999977--------10101010-9999-7777---------|
D-7777--------------10106666------------------10101010-|
A------------------------------------------------------|
D------------------------------------------------------|

e-----------------------|
B-----------------------|
G-----10p9p7-----10p9p7-|
D-7-7--------6-6--------|
A-----------------------|
D-----------------------|

e-----------------------|
B-----------------------|
G-----10p9p7-----10p9p7-|
D-7-7--------6-6--------|
A-----------------------|
D-----------------------|

e-----------------------|
B-----------------------|
G-----10p9p7-----10p9p7-|
D-7-7--------6-6--------|
A-----------------------|
D-----------------------|

e-----------------------|
B-----------------------|
G-----10p9p7-----10p9p7-|
D-7-7--------6-6--------|
A-----------------------|
D-----------------------|

e---------------------------|
B---------------------------|
G----------------7-7h9h10p9-|
D-7-7h9h10p9-9h10-----------|
A---------------------------|
D---------------------------|

e---------------------------|
B---------------------------|
G----------------7-7h9h10p9-|
D-7-7h9h10p9-9h10-----------|
A---------------------------|
D---------------------------|

e---------------------------|
B---------------------------|
G----------------7-7h9h10p9-|
D-7-7h9h10p9-9h10-----------|
A---------------------------|
D---------------------------|

e---------------------------|
B---------------------------|
G----------------7-7h9h10p9-|
D-7-7h9h10p9-9h10-----------|
A---------------------------|
D---------------------------|

e-----------------------------------------------------------------|
B-----------------------------------------------------------------|
G-----------------------------------------------------------------|
D-101010101010101099999999101010101010101012b12b12b12b12b12b12b12b
A-----------------------------------------------------------------|
D-----------------------------------------------------------------|

(chorus)
e ------------------------------------------------------------------|
B ------------------------------------------------------------------|
G ------------------------------------------------------------------|
D -7777777777777777666666666666666633333333333333332222222222222222-
A -7777777777777777666666666666666633333333333333332222222222222222-
D -7777777777777777666666666666666633333333333333332222222222222222-

e ------------------------------------------------------------------|
B ------------------------------------------------------------------|
G ------------------------------------------------------------------|
D -0000000000000000222222222222222233333333333333336666666666666666-
A -0000000000000000222222222222222233333333333333336666666666666666-
D -0000000000000000222222222222222233333333333333336666666666666666-

e ------------------------------------------------------------------|
B ------------------------------------------------------------------|
G ------------------------------------------------------------------|
D -7777777777777777666666666666666633333333333333332222222222222222-
A -7777777777777777666666666666666633333333333333332222222222222222-
D -7777777777777777666666666666666633333333333333332222222222222222-

e ------------------------------------------------------------------|
B ------------------------------------------------------------------|
G ------------------------------------------------------------------|
D -0000000000000000222222222222222233333333333333336666666666666666-
A -0000000000000000222222222222222233333333333333336666666666666666-
D -0000000000000000222222222222222233333333333333336666666666666666-

(outro)
im still working on the second solo so ill put it up when im done