From First To Last - Kiss Me Im Contagious Chords & Tabs

 

Kiss Me Im Contagious Chords & Tabs

From First To Last Chords & Tabs

Version: 2 Type: Bass Tab

Kiss Me Im Contagious Bass Tab

   
Key
~ = let note ring
/ or \ = slide up or down
------------------------------------


-INTRO-&-Verse 1-
G|-------------------------------|
D|-------------------------------|
A|------5\-----------------------|
D|-3-33-------7-77-777--2-22-222-|

(Baby I look like an out law!)
G|--------------5h7p5---------------------|
D|----------5h7---------------------------|
A|------5h7-------------------------------|
D|-3-33----------------7-77-777--2-22-222-|

G|------------------------------------------|
D|---------------7h8p7----------------------|
A|-----------7h9----------------------------|
D|-3-33--7h9-------------7-77-777--2-22-222-|

(I'll get you in the saddle...)
G|------------------------------------------|
D|-----------7-8-7-5------------------------|
A|-------7-8---------7-5--------------------|
D|-3-33------------------7-77-777--2-22-222-|

-Chorus-(We won't back down!)
G|--------------------------|  =====
D|--------------------------|       \
A|--------------------------|        \  
D|-2h3-2222-2h3-2222-2h3-22-|         \
                                       \
(Bang, Bang Guns Go Bang!)             >>>(x4)
G|--------------|                       ///
D|--------------|                      ///
A|--------------|                     ///
D|-3-2-2/7-3-2-0|  ===================                



(We Draw to Death!)
G|---------------|
D|---------------|
A|---------------|
D|-3-2-2/7-3-2-0-|
x3 
(Play when drums etc come in)
[ Tab from: http://www.guitartabs.cc/tabs/f/from_first_to_last/kiss_me_im_contagious_btab_ver_2.html ]
-Pre Verse-
G|-------------|
D|-------------|
A|-------------|
D|-00-00--7\---|

-Pre Verse cont.-
G|---------------------------|
D|---------------------------|
A|---------------------------|
D|-2h3-3333-2h3-3333-2h3-33--| (x3)

G|---------------|
D|---------------|
A|---------------|
D|-2h3-3333-2h3--|

(There was a man...)
G|--------------------------|
D|--------------------------|
A|-----------------55-------|
D|-8888(x4)-00-22------77-7-|

G|----------------7h9p7---------------|
D|-------------77---------------------|
A|----------55----------------55------|
D|-8888(x2)-------------00-22----77-7-| 

G|--------------------7h9p7---------------|
D|--------------10-10---------------------|
A|----------8-8-------------------55------|
D|-8888(x2)-----------------00-22----77-7-|

G|-------------------7h9p7---------------|
D|-------------10-10---------------------|
A|----------88-------------------55------|
D|-8888(x2)----------------00-22----77-7-|

-Breakdown-
G|-----------------------------------|
D|-----------------------------------|
A|-----------------------------------|
D|-3-3333333333333-7-777777-2-222222-|


-Play Verse 1 and then Chorus-

(Can I touch your legs?)
G|----------------------------|
D|----------------------------|
A|------------5---------------|
D|--00000--00---3-2-2/7-3-2-0-| (x4)

Wait for guitar then...
G|-----------------------------------|
D|-----------------------------------|
A|-----------------3-----------------|
D|-22222-2-3-22222---222222-3-22222--| (x4) 

-Outro-(Do this after the guitars mute)
G|-----|
D|-----|
A|-----|
D|-7\--|

RYknowfreak112
RYknowfreak112@yahoo.com