From First To Last - Emily Chords & Tabs

 

Emily Chords & Tabs

From First To Last Chords & Tabs

Version: 5 Type: Tab 0 ratings
1 star 2 stars 3 stars 4 stars 5 stars
comments

Emily Tab

From First To Last
Emily

Tabbed by: xmikex
Email: jetblacknewyear666@yahoo.com

Guitar 1 (Left Speaker)

~ = Let the note ring
x = Palm Mute
h = Hammer on
p = Pull-off
/ \ = Slide
* = Harmonics

00:00 - 00:06
|-----------------------------------------|
|-----------------------------------------|
|---------5-----------9------------9------|
|-----5-----5------9----9------7-----7----|
|-3-3---3------7-7--7------5-5--5--------|
|-----------------------------------------|

00:07 - 00:12
|-------------------------------------------------------------|
|--------------12*--------------------------------------------|
|------------------12*--------------------------5-3-2h3p2-----|
|------5---5----------------9---9--------7--------------------|
|--3-3---3---3----------7-7---7---7-5-5---5------------------|
|-------------------------------------------------------------|

00:13 - 00:25
|----------------------------------------------------------------------
|-------------------------------9--------------------------------------
|------7-----7-----7h9-7-9-7-6--7-6-7-6-6h7p4------7-----7-----7h9-7-
|----5-----5-----5---------------------------------5-----5-----5-------
|--3-----3-----3---------------------------------3-----3-----3---------
|----------------------------------------------------------------------

Continue
----------------------------------------------------------------------|
----------------------------------------------------------------------|
--12-12-12-11-11-11-12-12-14-14-14-12-12-12-11-11---------------------|
----------------------------------------------------------------------|
----------------------------------------------------------------------|
----------------------------------------------------------------------|

00:26 - 00:32
|----------------------------------------------------------|
|----------------------------------------------------------|
|----------5----------5--------------9---------5-3-2h3p2---|
|------5-----5----5-----5---5----9-----9---7---------------|
|--3-3---3------3---3-----3----7---7-----5---7-------------|
|----------------------------------------------------------|

00:33 - 00:45
|---------------------------------------------------------------| 2x
|---------------------------------------------------------------|
|------------------------5----------------9----------5-3-2h3p2--|
|------5---5-5---5---5-----5---5------9-----9----7--------------|
|--3-3---3-----3---3---3-----3----7-7---7------5---5------------|
|---------------------------------------------------------------|

00:46 - 00:51
|-------------------------------------------------------------| 1x
|-------------------------------------------------------------|
|------------------------5----------------9----------5--------|
|------5---5-5---5---5-----5---5------9-----9----7-----5---5--|
|--3-3---3-----3---3---3-----3----7-7---7------5---5-----3----|
|-------------------------------------------------------------|

00:52 - 1:04
Light Strumming
|-----------------------------------------------------------------|
|-----------------------------------------------------------------|
|--9-7/1212121212121212121212121212121212-9-7-55555555555555555--|
|--9-7/1212121212121212121212121212121212-9-7-55555555555555555--|
|--7-5/1010101010101010101010101010101010-7-5-33333333333333333--|
|-----------------------------------------------------------------|

1:05 - 1:17
Light Strumming
|-----------------------------------------------------------------|
|-----------------------------------------------------------------|
|--9-7/1212121212121212121212121212121212-9-7-55555555-5555-7~--|
|--9-7/1212121212121212121212121212121212-9-7-55555555-5555-7~--|
|--7-5/1010101010101010101010101010101010-7-5-33333333-3333-5~--|
|-----------------------------------------------------------------|

1:18 - 1:23
|----------------------------------------|
|----------------------------------------|
|---------5-----------9-----------9------|
|-----5-----5------9----9------7----7----|
|-3-3---3------7-7--7------5-5-5--------|
|----------------------------------------|

1:24 - 1:30
|-----------------------------------------------------------|
|--------------12*------------------------------------------|
|------------------12*--------------------------5-3-2h3p2---|
|------5---5----------------9---9--------7------------------|
|--3-3---3---3----------7-7---7---7-5-5---5----------------|
|-----------------------------------------------------------|

1:31 - 1:36
|--------------------------------------------------------------------|
|--------------------------------------------------------------------|
|----------5--------------5----------------9--------------7----------|
|------5-----5----5---5-----5---5------9-----9----7---7------7---7---|
|--3-3--3------3---3---3-----3----7-7---7------5---5---5------5-----|
|--------------------------------------------------------------------|
[ Tab from: http://www.guitartabs.cc/tabs/f/from_first_to_last/emily_tab_ver_5.html ]
1:37 - 1:43
|---------------------------------------------------------------------|
|---------------------------------------------------------------------|
|----------5--------------------5-----------9--------------7----------|
|------5-----5----5---5---5---5---------9-----9----7---7------7---7---|
|--3-3--3------3---3---3---3-------7-7---7------5---5---5------5-----|
|---------------------------------------------------------------------|

1:44 - 1:49
|----------------------------------------------------------------------|
|----------------------------------------------------------------------|
|----------5--------------------5-----------9--------------5-3-2h3p2---|
|------5-----5----5---5---5---5---------9-----9----7---7---------------|
|--3-3--3------3---3---3---3-------7-7---7------5---5---5-------------|
|----------------------------------------------------------------------|

1:50 - 1:56
|--------------------------------------------------------------|
|--------------------------------------------------------------|
|----------5-----------5----------9----------------5-3-2h3p2---|
|------5-------5---5----------9-----9----7---7-----------------|
|--3-3---3---3---3---3----7-7---7------5---5---5---------------|
|--------------------------------------------------------------|

1:57 - 2:09
Light Strumming
|-----------------------------------------------------------------|
|-----------------------------------------------------------------|
|--9-7/1212121212121212121212121212121212-9-7-55555555555555555--|
|--9-7/1212121212121212121212121212121212-9-7-55555555555555555--|
|--7-5/1010101010101010101010101010101010-7-5-33333333333333333--|
|-----------------------------------------------------------------|

2:10 - 2:21
Light Strumming
(A very faint Palm Mute near the end)
|----------------------------------------------------------------------|
|----------------------------------------------------------------------|
|-9-7/1212121212121212121212121212121212-9-7-55555555-5555-7~-7777-7-|
|-9-7/1212121212121212121212121212121212-9-7-55555555-5555-7~-7777-7-|
|-7-5/1010101010101010101010101010101010-7-5-33333333-3333-5~-5555-5-|
|----------------------------------------------------------------------|
                                                                xxxx
2:22 - 2:24
|--------------------|
|--------------12*---|
|--------------------|
|------5---5---------|
|--3-3---3---3-------|
|--------------------|

2:25 - 2:39
|--------|
|--------|
|--------|
|--------|
|--------|
|--------|


From First To Last
Emily
Guitar 2 (Right Speaker)

00:00 - 00:24
|-----------------------------------------| 4x
|-----------------------------------------|
|---------5-----------9------------7------|
|-----5-----5------9----9------7-----7----|
|-3-3---3------7-7--7------5-5--5--------|
|-----------------------------------------|

00:25 - 00:51
|----------------------------------| 4x
|----------------------------------|
|--55555555555-9999999999-777777---|
|--55555555555-9999999999-777777---|
|--33333333333-7777777777-555555---|
|----------------------------------|

00:52 - 1:04
Light Strumming
|-----------------------------------------------------------------|
|-----------------------------------------------------------------|
|--9-7/1212121212121212121212121212121212-9-7-55555555555555555--|
|--9-7/1212121212121212121212121212121212-9-7-55555555555555555--|
|--7-5/1010101010101010101010101010101010-7-5-33333333333333333--|
|-----------------------------------------------------------------|

1:05 - 1:17
Light Strumming
|-----------------------------------------------------------------|
|-----------------------------------------------------------------|
|--9-7/1212121212121212121212121212121212-9-7-55555555-5555-7~--|
|--9-7/1212121212121212121212121212121212-9-7-55555555-5555-7~--|
|--7-5/1010101010101010101010101010101010-7-5-33333333-3333-5~--|
|-----------------------------------------------------------------|

1:18 - 1:30
|-----------------------------------------| 2x
|-----------------------------------------|
|---------5-----------9------------7------|
|-----5-----5------9----9------7-----7----|
|-3-3---3------7-7--7------5-5--5--------|
|-----------------------------------------|

1:31 - 1:55
|----------------------------------| 4x
|----------------------------------|
|--55555555555-9999999999-777777---|
|--55555555555-9999999999-777777---|
|--33333333333-7777777777-555555---|
|----------------------------------|

1:56 - 2:09
Light Strumming
|-----------------------------------------------------------------|
|-----------------------------------------------------------------|
|--9-7/1212121212121212121212121212121212-9-7-55555555555555555--|
|--9-7/1212121212121212121212121212121212-9-7-55555555555555555--|
|--7-5/1010101010101010101010101010101010-7-5-33333333333333333--|
|-----------------------------------------------------------------|

2:10 - 2:21
Light Strumming
|-----------------------------------------------------------------|
|-----------------------------------------------------------------|
|--9-7/1212121212121212121212121212121212-9-7-55555555-5555-7~--|
|--9-7/1212121212121212121212121212121212-9-7-55555555-5555-7~--|
|--7-5/1010101010101010101010101010101010-7-5-33333333-3333-5~--|
|-----------------------------------------------------------------|
2:22 - 2:24
|--------------|
|--------------|
|---------5----|
|-----5-----5--|
|-3-3---3------|
|--------------|

2:25 - 2:39
|--------|
|--------|
|--------|
|--------|
|--------|
|--------|
Comments