From First To Last - Emily Chords & Tabs

 

Emily Chords & Tabs

From First To Last Chords & Tabs

Version: 2 Type: Tab 1 rating
1 star 2 stars 3 stars 4 stars 5 stars
comments

Emily Tab

   
----------------------------------------------------------------------------
			     EMILY - From First To Last


Tabbed by: SavesTheDon
Email: fsf_snowbird@yahoo.com

This song is off their debut album "Dear Diary, My Teen Angst Has A Bodycount",
which is incredible.

This is my first tab and i only have the intro, but if somebody could help me
out and get the whole thing done, it would be much appreciated. its an awesome
song. ( <12> is a harmonic)

Tuning: Standard (E A D G B E)
[ Tab from: http://www.guitartabs.cc/tabs/f/from_first_to_last/emily_tab_ver_2.html ]
e|-------------------------------------------------------------------------|
B|--------------------0-------------------------------0--------------------|
G|-------------------------------------------------------------------------|
D|-------------5----------5-------------------5----------5-----------------|
A|------3--3------3------------------7---7--------7------------------------|
E|-------------------------------------------------------------------------|

e|-------------------------------------------------------------------------|
B|-------------------0------------------------0----------<12>--------------|
G|--------------------------------------------------------------<12>-------|
D|------------4----------4--------------5--------5-------------------------|
A|-----5---5-----5----------------3--3-----3-------------------------------|
E|-------------------------------------------------------------------------|

if you got any more, just email me.
Comments