From First To Last - Emily Intro (one Guitar) Chords & Tabs

 

Emily Intro (one Guitar) Chords & Tabs

From First To Last Chords & Tabs

Version: 1 Type: Tab 2 ratings
1 star 2 stars 3 stars 4 stars 5 stars
comments

Emily Intro (one Guitar) Tab

E|-----------------------------------------------------------------------------------------
B|-----------0---------------0----------------0--------------0----------(12)---------------
G|-------------0---------------0----------------0--------------0-----------(12)------------
D|------5--------------5-----------------7---------------5---------------------------------
A|--3-3---3--------7-7---7-----------5-5---5---------3-3---3-------------------------------
E|-----------------------------------------------------------------------------------------
[ Tab from: http://www.guitartabs.cc/tabs/f/from_first_to_last/emily_intro_one_guitar_tab.html ]
E|-------------------------------------------------------------------------------------------
B|-------------------------------------------------------------------------------------------
G|----------0------------------7-5-4h5p4-------7-----7-----7/9-7----5-4---7-5-4-5-4-2-4-2----
D|------5-----5--------4-------------------4-5---4-5---4-5--------------5--------------------
A|--7-7---7--------5-5---5-------------------------------------------------------------------
E|-------------------------------------------------------------------------------------------

E|---------------------------------------------------------------------------------------------
B|---------------------------7-8-8-8-7-7-8-8-10-10-10-10-8-8-7-7-------------------------------
G|------7-----7-----7/9-7----------------------------------------------------------------------
D|--4-5---4-5---4-5----------------------------------------------------------------------------
A|---------------------------------------------------------------------------------------------
E|---------------------------------------------------------------------------------------------






Comments