From Autumn To Ashes - The Switch Chords & Tabs

 

The Switch Chords & Tabs

From Autumn To Ashes Chords & Tabs

Version: 1 Type: Tab 0 ratings
1 star 2 stars 3 stars 4 stars 5 stars
comments

The Switch Tab

TITLE: THE SWITCH
ALBUM: TOO BAD YOURE BEAUTIFUL
TABBED BY: JACKSUN6@AOL.COM

                            ARTIST: FROM AUTUMN TO ASHES

KEY:
PALM MUTE-- .
VIBRATO---- ~
SLIDE------ / \
TREMOLO---- " (UNTIL NEXT NOTE SOUNDS)
PICK SCRAPE- X


     STANDARD TUNING


INTRO(GUITAR 1)                        (GUITAR 2)
E---------------------------------      ------------------------------------
B---------------------------------      ------------------------------------
G---------------------------------      ------------------------------------
D--2222222222222222---------------      ------------------------------------
A--2222222222222222---------------      -X-\--------------------------------
E--0000000000000000---------------      -X-\--------------------------------
   ................

RIFF 1 (GUITAR 1)
E---------------------------------------------------------------------------
B---------------------------------------------------------------------------
G---9-10--9--7-9-5--9-10--9--7-9-12-----------------------------------------
D-77-7--77-77-7-7-77-7--77-77-7-7---------------------------------------(x2)
A---------------------------------------------------------------------------
E---------------------------------------------------------------------------
  .. .  .. .. . . .. .  .. .. . . ( ALL 7'S ON D ARE PALM MUTED)

RIFF 2 (GUITAR 1)
E---------------------------------------------------------------------------
B---------------------------------------------------------------------------
G---9-10--9--7-9-5--9-10--9--7-9-12-----------------------------------------
D-77-7--77-77-7-7-77-7--77-77-7-7---------------------------------------(x2)
A---------------------------------------------------------------------------
E---------------------------------------------------------------------------
  .. .  .. .. . . .. .  .. .. . . ( ALL 7'S ON D ARE PALM MUTED)

       (GUITAR 2)
E---------------------------------------------------------------------------
B--------------------------------------------------------12-12--------12-12-
G--------------------------------------------------------15-15--------15-15-
D-7"-------9"-10"-5"-------7"-8"-3"-------5"-6"-00000000-------000000-------
A-----------------------------------------------00000000-------000000-------
E-----------------------------------------------00000000-------000000------
                                                ........       ......

RIFF 3 (GUITAR 1)
E---------------------------------------------------------------------------
B---------------------------------------------------------------------------
G-7"-9"-10"-9"-7"-9"-7"-5"-7"-9"-10"-9"-7"-9"-10"-12"-----------------------
D---------------------------------------------------------------------------
A---------------------------------------------------------------------------
E---------------------------------------------------------------------------
(CONT.)
E---------------------------------------------------------------------------
B---------------------------------------------------------------------------
G-7"-9"-10"-9"-7"-9"-7"-5"---9-10--9--7-9-12--------------------------------
D--------------------------77-7--77-77-7-7----------------------------------
A---------------------------------------------------------------------------
E---------------------------------------------------------------------------
                           .. .  .. .. . .

       (GUITAR 2)
E---------------------------------------------------------------------------
B--------------------------------------------------------12-12--------12-12-
G--------------------------------------------------------15-15--------15-15-
D-7"-------9"-10"-5"-------7"-8"-3"-------5"-6"-00000000-------000000-------
A-----------------------------------------------00000000-------000000-------
E-----------------------------------------------00000000-------000000-------
                                                ........       ......

RIFF 4 (GUITAR 1)
E---------------------------------------------------------------------------
B---------------------------------------------------------------------------
G-10-9-7-10-9-7-10-9-7-10-9-7-10-9-7----------------------------------------
D-----------------------------------/10--10-10-10--9--9-9-9--7-9--------(x4)
A---------------------------------------------------------------------------
E---------------------------------------------------------------------------

       (GUITAR 2)
E---------------------------------------------------------------------------
B----------------------------------------------12---------------------------
G----------------------------------------------15---------------------------
D-00--00--00--00--------------------------------------------------------(x4)
A-00--00--00--00--10-10--9--7--9--------------------------------------------
E-00--00--00--00--8--8---7--5--7--------------------------------------------
  ..  ..  ..  ..
[ Tab from: http://www.guitartabs.cc/tabs/f/from_autumn_to_ashes/the_switch_tab.html ]
RIFF 5 
E---------------------------------------------------------------------------
B---------------------------------------------------------------------------
G-----0-----0---------------0-----0-----------------------------------------
D-7-7---9-9---10-10-7~--7-7---9-9---10-10-7/12\10---------------------------
A-0-----0-----0-----0~--0-----0-----0-----0~--------------------------------
E---------------------------------------------------------------------------
(CONT.)
E---------------------------------------------------------------------------
B---------------------------------------------------------------------------
G-----0-----0---------------0-----0-----------------------------------------
D-7-7---9-9---10-10-7~--7-7---0-7---0~--------------------------------- (x2)
A-0-----0-----0-----0~--0-----0-----0~--------------------------------------
E-----------------------0-----0---------------------------------------------
RIFF 6 (GUITAR 1)--REPEAT AS NEEDED--
E---------------------------------------------------------------------------
B---------------------------------------------------------------------------
G---------------------------------------------------------------------------
D-101010-101010-101010-101010-10101010--7-7-7--7-7-7--7-7-7--7-7-7--7-7-7-7-
A-8-8-8--8-8-8--8-8-8--8-8-8--8-8-8-8---5-5-5--5-5-5--5-5-5--5-5-5--5-5-5-5-
E---------------------------------------------------------------------------
  . . .  . . .  . . .  . . .  . . . .   . . .  . . .  . . .  . . .  . . . .
(CONT.)
E---------------------------------------------------------------------------
B---------------------------------------------------------------------------
G---------------------------------------------------------------------------
D-2-2-2--2-2-2--2-2-2--2-2-2--2-2-2-2---------------------------------------
A-0-0-0--0-0-0--0-0-0--0-0-0--0-0-0-0---------------------------------------
E---------------------------------------------------------------------------
  . . .  . . .  . . .  . . .  . . . .

       (GUITAR 2)
E---------------------------------------------------------------------------
B---------------------------------------------------------------------------
G-----5-----5-----5-----5-----5~--------------------------------------------
D-3-3---3-3---3-3---3-3---3-3-----------------------------------------------
A---------------------------------------------------------------------------
E---------------------------------------------------------------------------
  . .   . .   . .   . .   . .

CLEAN GUITAR
E---------------------------------------------------------------------------
B---------------------------------------------------------------------------
G---9-10--9--7-9-5--9-10--9--7-9-12--9-10--9--7-9-5--9-10--9--7-9-----------
D-77-7--77-77-7-7-77-7--77-77-7-7--77-7--77-77-7-7-77-7--77-77-7------------
A---------------------------------------------------------------------------
E---------------------------------------------------------------------------
RIFF 2 (GUITAR 1)
E---------------------------------------------------------------------------
B---------------------------------------------------------------------------
G---9-10--9--7-9-5--9-10--9--7-9-12-----------------------------------------
D-77-7--77-77-7-7-77-7--77-77-7-7---------------------------------------(x2)
A---------------------------------------------------------------------------
E---------------------------------------------------------------------------
 ... .  .. .. . . .. .  .. .. . . ( ALL 7'S ON D ARE PALM MUTED)

       (GUITAR 2)
E---------------------------------------------------------------------------
B--------------------------------------------------------12-12--------12-12-
G--------------------------------------------------------15-15--------15-15-
D-7"-------9"-10"-5"-------7"-8"-3"-------5"-6"-00000000-------000000-------
A-----------------------------------------------00000000-------000000-------
E-----------------------------------------------00000000-------000000-------
                                                ........       ......

RIFF 3 (GUITAR 1)
E---------------------------------------------------------------------------
B---------------------------------------------------------------------------
G-7"-9"-10"-9"-7"-9"-7"-5"-7"-9"-10"-9"-7"-9"-10"-12"-----------------------
D---------------------------------------------------------------------------
A---------------------------------------------------------------------------
E---------------------------------------------------------------------------
(CONT.)
E---------------------------------------------------------------------------
B---------------------------------------------------------------------------
G-7"-9"-10"-9"-7"-9"-7"-5"---9-10--9--7-9-12--------------------------------
D--------------------------77-7--77-77-7-7----------------------------------
A---------------------------------------------------------------------------
E---------------------------------------------------------------------------
                           .. .  .. .. . .

       (GUITAR 2)
E---------------------------------------------------------------------------
B--------------------------------------------------------12-12--------12-12-
G--------------------------------------------------------15-15--------15-15-
D-7"-------9"-10"-5"-------7"-8"-3"-------5"-6"-00000000-------000000-------
A-----------------------------------------------00000000-------000000-------
E-----------------------------------------------00000000-------000000-------
                                                ........       ......

RIFF 7 
E---------------------------------------------------------------------------
B---------------------------------------------------------------------------
G---------------------------------------------------------------------------
D-----7-8-7-5~--------------------------------------------------------- (x2)
A-/5~----------5-4-2-5-4-2-5-4--/5~-7-8-7-3~-5-4-2-5-4-2-5-4----------------
E--------------3-2-0-3-2-0-3-2---------------3-2-0-3-2-0-3-2----------------
               . . . . . . . .               . . . . . . . .

RIFF 8
E---------------------------------------------------------------------------
B--------12-12-12-----------------------------------------------------------
G--------15-15-15-----------------------------------------------------------
D-000000----------00000-------------------------------------------------(x4)
A-000000----------00000-----------------------------------------------------
E-000000----------00000-----------------------------------------------------
  ......          .....

RIFF 9
E---------------------------------------------------------------------------
B---------12-12-12----------------------------------------------------------
G---------15-15-15----------------------------------------------------------
D-0-0-0-0----------0-0-0-0--0--0-0--0-0-------------------------------- (x4)
A-0-0-0-0----------0-0-0-0--0--0-0--0-0-------------------------------------
E-0-0-0-0----------0-0-0-0--0--0-0--0-0-------------------------------------
  . . . .          . . . .  .  . .  . .

RIFF 10
E---------------------------------------------------------------------------
B---------------------------------------------------------------------------
G---------------------------------------------------------------------------
D-2~------------------------------------------------------------------------
A-2~----/7----7-8-7~----5/7~----3/5~----------------------------------------
E-0~------------------------------------------------------------------------

OUTRO CLEAN (GRADUALLY SLOWER)
E---------------------------------------------------------------------------
B---------------------------------------------------------------------------
G-----0-----0---------------0-----0-----------------------------------------
D-7-7---9-9---10-10-7~--7-7---9-9---10-10-7/12\10---------------------------
A-0-----0-----0-----0~--0-----0-----0-----0~--------------------------------
E---------------------------------------------------------------------------
(CONT.)
E---------------------------------------------------------------------------
B---------------------------------------------------------------------------
G-----0-----0---------------0-----0-----------------------------------------
D-7-7---9-9---10-10-7~--7-7---0-7---7~--------------------------------------
A-0-----0-----0-----0~--0-----0-----0~--------------------------------------
E---------------------------------------------------------------------------
PLEASE GO EASY. THIS IS MY FIRST EVER TAB...
Comments