From Autumn To Ashes - The After Dinner Payback Chords & Tabs

 

The After Dinner Payback Chords & Tabs

From Autumn To Ashes Chords & Tabs

Version: 4 Type: Tab 0 ratings
1 star 2 stars 3 stars 4 stars 5 stars
comments

The After Dinner Payback Tab

   
-----------------------------------------------------------------------------
			From Autumn to Ashes - The After Dinner Payback
-----------------------------------------------------------------------------
Tabbed by: 2020vision
Email:bluedrgn456@hotmail.com

Tuning: Standard

This is my way of playing FATA's after dinner payback. Yes, Im aware some
parts are incorrect/played differently, but its how i play it, and its still
a lot better than most tabs ive seen on the net. Feel free to add extra notes
for rhythm, like during the verse riffs.
[ Tab from: http://www.guitartabs.cc/tabs/f/from_autumn_to_ashes/the_after_dinner_payback_tab_ver_4.html ]
Intro
Guitar 1:
e|---------------------------------------------------------------------------|
B|---------------------------------------------------------------------------|
G|--11-12---11-12-11-12-12-12-9--------------------------------------------|
D|---------------------------------------------------------------------------|
A|---------------------------------------------------------------------------|
E|---------------------------------------------------------------------------|
Guitar 2:
e|---------------------------------------------------------------------------|
B|---------------------------------------------------------------------------|
G|---------------------------------------------------------------------------|
D|--2------------------------------------------------------------------------|
A|--2------------------------------------------------------------------------|
E|--0-(let ring)-------------------------------------------------------------|
Verse
Guitar 2:
e|---------------------------------------------------------------------------|
B|---------------------------------------------------------------------------|
G|----------------------------------5-5---5-5--------5-5---5-5---------------|
D|--2-2---2-2--------2-2---2-2-5555-5-5---5-5--------5-5---5-5---------------|
A|--2-2---2-2-222222-2-2---2-2-3333-3-3---3-3-222222-3-3---3-3-222222--------|
E|--0-0---0-0-000000-0-0---0-0----------------000000-----------000000--------|
pm            ......           ....           ......           ......
Guitar 1:(verse background riff)
e|---------------------------------------------------------------------------|
B|--7-87-8-7-888---7-8-7-8-7-888----3-5-3-5-3-555---3-5-3-5-3-555-----------|
G|----------------9---------------9----------------5---------------5---------|
D|---------------------------------------------------------------------------|
A|---------------------------------------------------------------------------|
E|---------------------------------------------------------------------------|
Pre-Chorus
Guitar 2:
e|---------------------------------------------------------------------------|
B|---------------------------------------------------------------------------|
G|---------------------------------------------------------------------------|
D|---7p5/4-5-5-5p4-4-5--5----------------------------------------------------|
A|-----------------------7---------------------------------------------------|
E|---------------------------------------------------------------------------|
Next Prechorus Riff, Guitar 1
e|---------------------------------------------------------------------------|
B|---------------------------------------------------------------------------|
G|---7-5-4----7-5-4-07-5-4---0000000----------------------------------------|
D|---------5------------------5555555----------------------------------------|
A|---------------------------------------------------------------------------|
E|---------------------------------------------------------------------------|
Chorus (melodic, softer part) (both guitars)
e|---------------------------------------------------------------------------|
B|---------------------------------------------------------------------------|
G|-----4-----4-----4-----4-----4-----4---4-----0-----------------------------|
D|---5---555---5-5---555--5-5---555---5---555-------------------------------|
A|---------------------------------------------------------------------------|
E|---------------------------------------------------------------------------|


e|---------------------------------------------------------------------------|
B|---------------------------------------------------------------------------|
G|---------------------------------------------------------------------------|
D|---------------------------------------------------------------------------|
A|---------------------------------------------------------------------------|
E|---------------------------------------------------------------------------|


| /  slide up
| \  slide down
| h  hammer-on
| p  pull-off
| ~  vibrato
| +  harmonic
| x  Mute note
Comments