From Autumn To Ashes - Take Her To The Music Store Chords & Tabs

 

Take Her To The Music Store Chords & Tabs

From Autumn To Ashes Chords & Tabs

Version: 2 Type: Tab 0 ratings
1 star 2 stars 3 stars 4 stars 5 stars
comments

Take Her To The Music Store Tab

FROM AUTUMN TO ASHES 
Too Bad You're Beautiful
"Take her to the music store"
Tabbed by: Sam Elderfield
sam_2929@hotmail.com

Couldn't find this song online. transcribed it and now puttin it
on in case theres other poeple besides me that think this song kicks
ass.

blah blah blah.... then starts 
----------------------------------------------------------------
----------------------------------------------------------------
----------------------------------------------------------------
-2--------------------------------------------------------------
-2-let ring..---------------------------------------------------
-0----------------pick slide in to slow riff--------------------

Guitar 1.. can't tell if hes playing anything for bass but here's 
the high notes he hits.  this is the first part exactly, i'm too 
lazy to put the rest but its the same notes played iwth different
rests.
-3-3-2-0-0-2-3-5-5-3-2----3-3-2-0-0-2-2-3-5-3-2-----------------
----------------------------------------------------------------
----------------------------------------------------------------
----------------------------------------------------------------
----------------------------------------------------------------
----------------------------------------------------------------
Guitar 2
----------------------------------------------------------------
----------------------------------------------------------------
----------------------------------------------------------------
----------------------------------------------------------------
-9-9-9/10-10-10-10-10-10-10/12-12-12----------------------------
-7-7-7/8---8--8--8--8--8--8/10-10-10----------------------------
[ Tab from: http://www.guitartabs.cc/tabs/f/from_autumn_to_ashes/take_her_to_the_music_store_tab_ver_2.html ]
Then hit the heavy distortion. guitar 1 plays the riff once alone
then guitar 2 joins in the second time.
It's E, C, D  i play the high E powerchord, you can play the low if you want
----------------------------------------------------------------
----------------------------------------------------------------
--9----5----7---------------------------------------------------
--9----5----7---------------------------------------------------
--7----3----5---------------------------------------------------
----------------------------------------------------------------
play these as fast as the track. wail away

Here's the verse riff
----------------------------------------------------------------
----------------------------------------------------------------
-7-9-5-7-9-11-12-14--7-9-12-14-12-11-9-7------------------------
----------------------------------------------------------------
-5-7-3-5-7--9-10-12--5-7-10-12-10--9-7-5------------------------
----------------------------------------------------------------
figure out the strumming on your own its easy. here's the chords in order

As far as the breakdowns go, its all muted E powerchords.

Sweet riff.. 
----------------------------------------------------------------
----------------------------------------------------------------
-9-9-11-12-11p9----9-11-12-11p9----9-11-12-11p9-----------------
----------------12--------------10--------------9---------------
----------------------------------------------------------------
----------------------------------------------------------------

im lazy. e-mail me if you reallly need the rest of the song cuase i dont
feel like typin it all up.  as far as chords go they use the same ones
pretty much the whole song.
Comments