From Autumn To Ashes - Sugar Wolf Chords & Tabs

 

Sugar Wolf Chords & Tabs

From Autumn To Ashes Chords & Tabs

Version: 1 Type: Tab

Sugar Wolf Tab

P:pull off
*:pinch harmonics
\:slide down

Intro/verse
e|----------------------------------------------------------------|
B|----------------------------------------------------------------|
G|----------------------------------------------------------------|
D|-----------------------------------14P12P11-14P12P11-14P12P11---|
A|--10P7-7-9-5-5-5-7-7-7-10P7-7-9---------------------------------|
E|----------------------------------------------------------------|


e|------------------------------------------------------------|
B|------------------------------------------------------------|
G|------------------------------------------------------------|
D|---------------------------------222222---------------------|
A|10P7-7-9-5-5-5-7-7-7-10P7-7-9--2-222222---------------------|
E|------------------------------------------------------------|
P.M.                               ......


Pre-Chorus
e|----------------------------------------------------------------|
B|----------------------------------------------------------------|
G|----------------------------------------------------------------|
D|-------------------------------5-----7-----5-5-5-5-7-7-7-7------|
A|--10P7-7-9-5-5-7-7-2-2-3-3-2-3---4-5-------3-3-3-3-5-5-5-5------|
E|----------------------------------------------------------------|
P.M.                         . .    . .      . . . .

[ Tab from: http://www.guitartabs.cc/tabs/f/from_autumn_to_ashes/sugar_wolf_tab.html ]
Chorus
e|----------------------------------------------------------------------|
B|----------------------------------------------------------------------|
G|----------------------------------------------------------------------|
D|------------------------5-5-5-5-5-5-5-5-5-5-5---7-7-7-7-7-7-7-7-7-----|
A|--5-5-5-5-5-5-5-5-5-5-5-3-3-3-3-3-3-3-3-3-3-3---5-5-5-5-5-5-5-5-5-----|
E|--3-3-3-3-3-3-3-3-3-3-3-----------------------------------------------|

e|------------------------------------------------------------------------|
B|------------------------------------------------------------------------|
G|------------------------------12-12-12-12-14-14-14-14-16-16-16-16-17-17-|
D|-------------------------------x--x--x--x--x--x--x--x--x-x-x-x--x--x--x-|
A|--7-7-7-7-7-7-7-7-7-7-7-7-----10-10-10-10-12-12-12-12-14-14-14-14-15-15-|
E|--5-5-5-5-5-5-5-5-5-5-5-5-----------------------------------------------|

e|------------------------------------------------------|
B|------------------------------------------------------|
G|--17-17-----------------------------------------------|
D|--x--x------------------------------------------------|
A|--15-15-----------------------------------------------|
E|------------------------------------------------------|

Interlude
e|--------------------------------------------------------------|
B|--7\8-8-8-8\10-10-10-10\-12-12-12\14-14-14-5------------------|
G|--------------------------------------------------------------|
D|--------------------------------------------------------------|
A|-------------------------------------------------*5--*2-------|
E|-----------------------------------------------0----0---------|
P.M.                                             .    .


e|------------------------------------------------------|
B|------------------------------------------------------|
G|--5-5-5-5-5-5-7-7-7-7-7-7-4-4-4-4-4-4\5---------------|
D|--3-3-3-3-3-3-5-5-5-5-5-5-2-2-2-2-2-2\3---------------|
A|------------------------------------------------------|
E|------------------------------------------------------|

then verse... i havn't quite got the solo finished but i'm gettin' there...this is only 
second tabs and im 15... so yea.. lol... later