From Autumn To Ashes - Reflections Chords & Tabs

 

Reflections Chords & Tabs

From Autumn To Ashes Chords & Tabs

Version: 2 Type: Tab 0 ratings
1 star 2 stars 3 stars 4 stars 5 stars
comments

Reflections Tab

   
This is the orignal Reflections from there EP

* - harmonics
. - palm mute

guitar 1: lead

E
B
G
D  let the feedback come in on the guitar and listen for the whammy bar
A
E

Guitar 2: rythem
E------------------------|
B------------------------|
G------------------------|
D--2~~--------------2~~--|
A--2~~--------------2~~--|
E--0~~--------------0~~--|

Lead & Rythem

E---------------------------------------------------------------------------|
B---------------------------------------------------------------------------|
G-----------99991010101099977775555---------999910101010121212121414141416--|
D--2-2-2-2-2-----------------------2-2-2-2-2--------------------------------|
A--2-2-2-2-2-----------------------2-2-2-2-2--------------------------------|
E--0-0-0-0-0-----------------------0-0-0-0-0--------------------------------|
   . . . . . ^ triple picked     ^ . . . . .   ^ triple picked      ^
E----------------------------------------------------------------------------|
B----------------------------------------------------------------------------|
G-----------99991010101099977775555----------999910101010121212121414141416--|
D--2-2-2-2-2------------------------2-2-2-2-2--------------------------------|
A--2-2-2-2-2------------------------2-2-2-2-2--------------------------------|
E--0-0-0-0-0------------------------0-0-0-0-0--------------------------------|
   . . . . . ^ triple picked      ^ . . . . .     ^ triple picked  ^   ^

E------------------------------------------------------------|
B------------------------------------------------------------|
G------------------------------------------------------------|
D--2-2-2-2-2------2-2-2-2-2-----2-2-2-2-2-----2-2-2-2-2------|
A--2-2-2-2-2------2-2-2-2-2-----2-2-2-2-2-----2-2-2-2-2------|
E--0-0-0-0-0------0-0-0-0-0-----0-0-0-0-0-----0-0-0-0-0------|
   . . . . .      . . . . .     . . . . .     . . . . .

E--------------------------------------------------------------|
B--------------------------------------------------------------|
G------------------------7~--7-9-10-9-7------------------------|
D----222222222-222222222-x~-------------9-10-9-7-9-10-9-7-9----| 4X
A----222222222-222222222-5~---------------------------------10-|
E----000000000-000000000---------------------------------------|
     ^triple pick p.m  ^
E------------------------|
B------------------------|
G------------------------|
D----2~---2~---2~---2~---|
A----2~---2~---2~---2~---|
E----0~---0~---0~---0~---|


Rythem guitar (clean light up and down strokes)

E-----|-----|-----|
B--0--|--2--|--3--|
G--4--|--4--|--4--|
D--4--|--4--|--4--| 6X
A--2--|--0--|--0--|
E-----|-----|-----|

Lead Guitar

e|--------------------------------------|
B|---0-------0-------0------------------|
G|--0-0-----0-------0-0-----------------|
D|-4---4---4-------4---4----0--0--------| 4X
A|2-----2-0-----0-5-----5--2--4-0-------| (last time add distortion to last
E|------------------------3--5----------|  7 notes p.m)

rythem and lead

E----------------------------------------|
B----------------------------------------|
G--------------5*------------------------|
D-------------5*-------------------------| 4X
A--9~-9-7~---5*---5-5-5-5-4-4-4-4-4-4----|
E--7~-7-5~--------3-3-3-3-2-2-2-2-2-2----|
      .             .   .   .   .

[ Tab from: http://www.guitartabs.cc/tabs/f/from_autumn_to_ashes/reflections_tab_ver_2.html ]
E----------------------------------------|
B----------------------------------------|
G----------------------------------------|
D--2~~2-2-2-2~~2-2-2-2~~2-2-2-2~~2-2-2---|
A--2~~2-2-2-2~~2-2-2-2~~2-2-2-2~~2-2-2---|
E--0~~0-0-0-0~~0-0-0-0~~0-0-0-0~~0-0-0---|
      . . .    . . .    . . .    . . .


rythem

E---------------------------|
B---------------------------|
G---------------------------|
D--2-2-2-2-2---2-2-2-3-3-3--| 8X
A--2-2-2-2-2---2-2-2-3-3-3--|
E--0-0-0-0-0---0-0-0-1-1-1--|
   . . . . .   . . . . . .
Lead

E-----------------------------|---2-3-2---|
B-----------------------------|--0--------|
G-----------------------------|-----------|20X (last 4 play alone)
D--2-2-2-2-2---2-2-2-3-3-3--4X|-----------|
A--2-2-2-2-2---2-2-2-3-3-3----|-----------|
E--0-0-0-0-0---0-0-0-1-1-1----|-----------|

rythem and lead

E---------------------------------------------------------------------------|
B---------------------------------------------------------------------------|
G-----------99991010101099977775555---------999910101010121212121414141416--|
D--2-2-2-2-2-----------------------2-2-2-2-2--------------------------------|
A--2-2-2-2-2-----------------------2-2-2-2-2--------------------------------|
E--0-0-0-0-0-----------------------0-0-0-0-0--------------------------------|
   . . . . . ^ triple picked     ^ . . . . .   ^ triple picked      ^
E----------------------------------------------------------------------------|
B----------------------------------------------------------------------------|
G-----------99991010101099977775555----------999910101010121212121414141416--|
D--2-2-2-2-2------------------------2-2-2-2-2--------------------------------|
A--2-2-2-2-2------------------------2-2-2-2-2--------------------------------|
E--0-0-0-0-0------------------------0-0-0-0-0--------------------------------|
   . . . . . ^ triple picked      ^ . . . . .     ^ triple picked  ^

Rythem

E----------------------------------|-----------------------------------------|
B----------------------------------|-----------------------------------------|
G----------------------------------|-----------------------------------------|
D---9--7--5~--7~-9~-5~-12~-11~-- 4X|-777777-999999-555555-1212121212-111111--|
A---7--5--3~--5~-7~-3~-10~-9~------|-555555-777777-333333-1010101010-99999---|
E----------------------------------|-----------------------------------------|
                                      dont triple pick juss strum

Lead


E---------10-------------------10------------------------------------------|
B-8-12-10----12-10-12-10-12-10----12-10------------------------------------|
G--------------------------------------------------------------------------|
D--------------------------------------------------------------------------|
A--------------------------------------------------------------------------|
E--------------------------------------------------------------------------|


rythem

E---------------------------|
B---------------------------|
G---------------------------|
D--2-2-2-2-2---2-2-2-3-3-3--| 8X
A--2-2-2-2-2---2-2-2-3-3-3--|
E--0-0-0-0-0---0-0-0-1-1-1--|
   . . . . .   . . . . . .
Lead

E-----------------------------|---2-3-2---|
B-----------------------------|--0--------|
G-----------------------------|-----------|20X (last 4 play alone)
D--2-2-2-2-2---2-2-2-3-3-3--4X|-----------|
A--2-2-2-2-2---2-2-2-3-3-3----|-----------|
E--0-0-0-0-0---0-0-0-1-1-1----|-----------|
Comments