From Autumn To Ashes - No Trivia Chords & Tabs

 

No Trivia Chords & Tabs

From Autumn To Ashes Chords & Tabs

Version: 2 Type: Tab 0 ratings
1 star 2 stars 3 stars 4 stars 5 stars
comments

No Trivia Tab

   
----------------------------------------------------------------------------
			     SONG NAME - Band Name
----------------------------------------------------------------------------
Tabbed by:LostinApril
Email: punkrock_fan888@hotmail.com

Tuning: Half Step Tuning

I'm not really sure if this tab is 100% correct, but it sounds good to me and
I hope it sounds good to you too.

Intro and Verse
e|-------------------------------|-------------------------------0---------|
B|----0----4-0--------0---4-0----|----0---4-0---------0---4-0--------------|
G|-------------------------------|-----------------------------------------|
D|--2---2------2----2---2-----2--|--2---2------2----2---2-----2------------|
A|-4------------4--------------4-|-0------------0--------------------------|
E|-------------------------------|-----------------------------------------|


Chorus (Gtr.1) Play Two Times
e|-----------------------------------------------|-------------------------|
B|-----------------------------------------------|-------------------------|
G|-13-13-13-13-----13-13-13-13-13----13-14-13-11-|-------------------------|
D|-x--x--x--x--xx--x--x--x--x--x--xx-x--x--x--x--|-------------------------|
A|-11-11-11-11-xx--11-11-11-11-11-xx-11-12-11-9--|-------------------------|
E|-0--0--0--0--xx--0--0--0--0--0--xx-0--0--0--0--|-------------------------|


e|-------------------------------------------------------------------------|
B|-------------------------------------------------------------------------|
G|-------------------------------------------------------------------------|
D|-------------------------------------------------------------------------|
A|-9-9-9-9-xx-9-9-9-9-xx-9-9-9-9--11-11-11-11-xx-11-11-11-11-xx-111111-----|
E|-7-7-7-7-xx-7-7-7-7-xx-7-7-7-7--9--9--9--9--xx-9--9--9--9--xx-999999-----|
                              
                             Play this on 2nd time of chorus.
e|--------------------------|---------|-----------------------------------|
B|--------------------------|---------|-----------------------------------|
G|--------------------------|---------|-----------------------------------|
D|--------------------------|-(6)-----|-6\--------------------------------|
A|-7-7-7-7-xx-7-7-7-7--xxxx-|-(4)-----|-4-\-------------------------------|
E|-5-5-5-5-xx-5-5-5-5--xxxx-|---------|-----------------------------------|


Chorus (Gtr.2)
e|-------------------------------------------------------------------------|
B|-9-9-9-9------9-9-9-9------9--10--9-7----7-7-7-7---7-7-7/12-12-12-12-12\-|
G|-x-x-x-x------x-x-x-x------x--x-x-x------x-x-x-x---x-x-x-x--x--x--x--x---|
D|-6-6-6-6--xx--6-6-6-6--xx--6--7---6-4----4-4-4-4---4-4-4/12-9--9--9--9-\-|
A|-x-x-x-x--xx--x-x-x-x--xx--x--x---x-x------------------------------------|
E|-0-0-0-0--xx--0-0-0-0--xx--0--0---0-0------------------------------------|


e|---------------------------------|---------------------------------------|
B|-7-7/12-12\-7-7--9-9-10-7--------|---------------------------------------|
G|-x-x-x--x---x-x--x-x-x--x--------|---------------------------------------|
D|-4-4/9--9-\-4-4--6-6-7--4--xxxx--|---------------------------------------|
A|---------------------------xxxx--|---------------------------------------|
E|---------------------------xxxx--|---------------------------------------|

Break down
e|-----------|-------------|-------------|---------------------------------|
B|------0----|------0-4----|------0-4----|---------------------------------|
G|-----------|-------------|-------------|---------------------------------|
D|---2-------|-------------|---2---------|---------------------------------|
A|-4---------|-4-2---------|-0-----------|---------------------------------|
E|-----------|-------------|-------------|---------------------------------|


e|-------------------------------------------------------------------------|
B|-------------------------------------------------------------------------|
G|-------------------------------------------------------------------------|
D|-------------------------------------------------------------------------|
A|-6-6-6-6-6--6-6-6-6-6--0-0-0-0-0--0-0-0-0-0------------------------------|
E|-4-4-4-4-4--4-4-4-4-4--2-2-2-2-2--2-2-2-2-2------------------------------|


e|-------------------------------------------------------------------------|
B|-------------------------------------------------------------------------|
G|-------------------------------------------------------------------------|
D|-------------------------------------------------------------------------|
A|-6-6-6-6-6--6-6-6-6-6--0-0-0-0-0--0-0-0-0-0------------------------------|
E|-4-4-4-4-4--4-4-4-4-4--2-2-2-2-2--2-2-2-2-2------------------------------|


Chorus (Gtr.1) Play Two Times
e|-----------------------------------------------|-------------------------|
B|-----------------------------------------------|-------------------------|
G|-13-13-13-13-----13-13-13-13-13----13-14-13-11-|-------------------------|
D|-x--x--x--x--xx--x--x--x--x--x--xx-x--x--x--x--|-------------------------|
A|-11-11-11-11-xx--11-11-11-11-11-xx-11-12-11-9--|-------------------------|
E|-0--0--0--0--xx--0--0--0--0--0--xx-0--0--0--0--|-------------------------|


e|-------------------------------------------------------------------------|
B|-------------------------------------------------------------------------|
G|-------------------------------------------------------------------------|
D|-------------------------------------------------------------------------|
A|-9-9-9-9-xx-9-9-9-9-xx-9-9-9-9--11-11-11-11-xx-11-11-11-11-xx-111111-----|
E|-7-7-7-7-xx-7-7-7-7-xx-7-7-7-7--9--9--9--9--xx-9--9--9--9--xx-999999-----|
                              
                             
e|--------------------------|----------------------------------------------|
B|--------------------------|----------------------------------------------|
G|--------------------------|----------------------------------------------|
D|--------------------------|----------------------------------------------|
A|-7-7-7-7-xx-7-7-7-7--xxxx-|----------------------------------------------|
E|-5-5-5-5-xx-5-5-5-5--xxxx-|----------------------------------------------|


Chorus (Gtr.2) Play Two Times
e|-------------------------------------------------------------------------|
B|-9-9-9-9------9-9-9-9------9--10--9-7----7-7-7-7---7-7-7/12-12-12-12-12\-|
G|-x-x-x-x------x-x-x-x------x--x---x------x-x-x-x---x-x-x-x--x--x--x--x---|
D|-6-6-6-6--xx--6-6-6-6--xx--6--7---6-4----4-4-4-4---4-4-4/12-9--9--9--9-\-|
A|-x-x-x-x--xx--x-x-x-x--xx--x--x---x-x------------------------------------|
E|-0-0-0-0--xx--0-0-0-0--xx--0--0---0-0------------------------------------|

[ Tab from: http://www.guitartabs.cc/tabs/f/from_autumn_to_ashes/no_trivia_tab_ver_2.html ]
e|---------------------------------|---------------------------------------|
B|-7-7/12-12\-7-7--9-9-10-7--------|---------------------------------------|
G|-x-x-x--x---x-x--x-x-x--x--------|---------------------------------------|
D|-4-4/9--9-\-4-4--6-6-7--4--xxxx--|---------------------------------------|
A|---------------------------xxxx--|---------------------------------------|
E|---------------------------xxxx--|---------------------------------------|


(Gtr.1)
e|-------------------------------------------------------------------------|
B|-------------------------------------------------------------------------|
G|-------------------------------------------------------------------------|
D|-11-11-11-11-11-11-11-11-11-11-11-11-11-11-11-11-------------------------|
A|-9--9--9--9--9--9--9--9--9--9--9--9--9--9--9--9--------------------------|
E|-------------------------------------------------------------------------|


e|-------------------------------------------------------------------------|
B|-------------------------------------------------------------------------|
G|-------------------------------------------------------------------------|
D|-11-11-11-11-11-11-11-11-11-11-11-11-11-11-11-11-------------------------|
A|-8--8--8--8--8--8--8--8--8--8--8--8--8--8--8--8--------------------------|
E|-------------------------------------------------------------------------|


e|-------------------------------------------------------------------------|
B|-------------------------------------------------------------------------|
G|-------------------------------------------------------------------------|
D|-8-8-8-8-8-8-8-8-8-8-8-8-8-8-8-8--6-6-6-6--------------------------------|
A|-6-6-6-6-6-6-6-6-6-6-6-6-6-6-6-6--4-4-4-4--------------------------------|
E|-------------------------------------------------------------------------|

(Gtr.2)
e|-------------------------------------------------------------------------|
B|-11-11-11-11-11-11-11-11-11-11-11-11-11-11-11-11-------------------------|
G|-x--x--x--x--x--x--x--x--x--x--x--x--x--x--x--x--------------------------|
D|-6--6--6--6--6--6--6--6--6--6--6--6--6--6--6--6--------------------------|
A|-------------------------------------------------------------------------|
E|-------------------------------------------------------------------------|


e|-------------------------------------------------------------------------|
B|-14-14-14-14-14-14-14-14-14-14-14-14-14-14-14-14-------------------------|
G|-x--x--x--x--x--x--x--x--x--x--x--x--x--x--x--x--------------------------|
D|-11-11-11-11-11-11-11-11-11-11-11-11-11-11-11-11-------------------------|
A|-------------------------------------------------------------------------|
E|-------------------------------------------------------------------------|


e|-------------------------------------------------------------------------|
B|-11-11-11-11-11-11-11-11-11-11-11-11-11-11-11-11-------------------------|
G|-x--x--x--x--x--x--x--x--x--x--x--x--x--x--x--x--------------------------|
D|-8--8--8--8--8--8--8--8--8--8--8--8--8--8--8--8--------------------------|
A|-------------------------------------------------------------------------|
E|-------------------------------------------------------------------------|


e|-------------------------------------------------------------------------|
B|-9-9-9---11-11-11--------------------------------------------------------|
G|-x-x-x---x--x--x---------------------------------------------------------|
D|-6-6-6---8--8--8---------------------------------------------------------|
A|-------------------------------------------------------------------------|
E|-------------------------------------------------------------------------|

(Gtr.1)
e|-------------------------------------------------------------------------|
B|-------------------------------------------------------------------------|
G|-------------------------------------------------------------------------|
D|-11-11-11-11-11-11-11-11-11-11-11-11-11-11-11-11-------------------------|
A|-9--9--9--9--9--9--9--9--9--9--9--9--9--9--9--9--------------------------|
E|-------------------------------------------------------------------------|


e|-------------------------------------------------------------------------|
B|-------------------------------------------------------------------------|
G|-------------------------------------------------------------------------|
D|-11-11-11-11-11-11-11-11-11-11-11-11-11-11-11-11-------------------------|
A|-8--8--8--8--8--8--8--8--8--8--8--8--8--8--8--8--------------------------|
E|-------------------------------------------------------------------------|


e|-------------------------------------------------------------------------|
B|-------------------------------------------------------------------------|
G|--------------------------------------------4----------------------------|
D|-8-8-8-8-8-8-8-8-8-8-8-8-8-8-8-8--6-6-6-6---4----------------------------|
A|-6-6-6-6-6-6-6-6-6-6-6-6-6-6-6-6--4-4-4-4---2----------------------------|
E|-------------------------------------------------------------------------|

(Gtr.2)
e|-------------------------------------------------------------------------|
B|-11-11-11-11-11-11-11-11-11-11-11-11-11-11-11-11-------------------------|
G|-x--x--x--x--x--x--x--x--x--x--x--x--x--x--x--x--------------------------|
D|-6--6--6--6--6--6--6--6--6--6--6--6--6--6--6--6--------------------------|
A|-------------------------------------------------------------------------|
E|-------------------------------------------------------------------------|


e|-------------------------------------------------------------------------|
B|-14-14-14-14-14-14-14-14-14-14-14-14-14-14-14-14-------------------------|
G|-x--x--x--x--x--x--x--x--x--x--x--x--x--x--x--x--------------------------|
D|-11-11-11-11-11-11-11-11-11-11-11-11-11-11-11-11-------------------------|
A|-------------------------------------------------------------------------|
E|-------------------------------------------------------------------------|


e|-------------------------------------------------------------------------|
B|-11-11-11-11-11-11-11-11-11-11-11-11-11-11-11-11-------------------------|
G|-x--x--x--x--x--x--x--x--x--x--x--x--x--x--x--x--------------------------|
D|-8--8--8--8--8--8--8--8--8--8--8--8--8--8--8--8--------------------------|
A|-------------------------------------------------------------------------|
E|-------------------------------------------------------------------------|


e|-------------------------------------------------------------------------|
B|-9-9-9---11-11-11---12---------------------------------------------------|
G|-x-x-x---x--x--x----x----------------------------------------------------|
D|-6-6-6---8--8--8----9----------------------------------------------------|
A|-------------------------------------------------------------------------|
E|-------------------------------------------------------------------------|

There you go! That was my first time submitting a tab and it took a while. I
know it's not correct, but it is close enough.Sorry if you can't really understand
what I'm tabbing out,like I said, this is my first time.

Thanks!

| / slide up
| \ slide down
| h hammer-on
| p pull-off
| ~ vibrato
| + harmonic
| x Mute note
============================================================================
Comments