From Autumn To Ashes - No Trivia Acoustic Chords & Tabs

 

No Trivia Acoustic Chords & Tabs

From Autumn To Ashes Chords & Tabs

Version: 1 Type: Tab 0 ratings
1 star 2 stars 3 stars 4 stars 5 stars
comments

No Trivia Acoustic Tab

   
Title: No Trivia (Acoustic)
Artist: From Autumn To Ashes
Tabbed By: Patrick Lawrence Caasi (Philippines)
E-Mail: www.broundsound@yahoo.com

Message: There is no such thing as acoustic version of this song, but me and my band
greenstick played it in acoustic type in one of our gigs so I found it really cool!


Intro: 
	C#m
e|-----------------------------------------------------------------|
B|------4-----5-------4-----5---------4-----5--------4----5--------|
G|----------6-------------6---------------6-------------6----------|
D|---6----6--------6----6----------6----6---------6---6------------|
A|-4-------------4---------------0--------------0------------------|
E|-----------------------------------------------------------------|


Verse: 
C#m	  A
M 4 V T C and H
C#m					    A			
Might need to provide this number at the gate  
	-do- 
e|---------0---------0---------0-------0------|
B|-----4---------4---------4-------4----------|
G|-------4---------4---------4-------4--------|
D|--------------------------------------------|
A|---4--------4---------0--------0------------|
E|--------------------------------------------|
[ Tab from: http://www.guitartabs.cc/tabs/f/from_autumn_to_ashes/no_trivia_acoustic_tab.html ]
C#m			    A
Steady pilot coz' I'm half afraid
C#m						A
I can't believe you'd ask me that, of course I don't believe in fate


Chorus
E			B
Would you be depressed?
             C#m
If I attend that wedding
A
But only as a guest
E			  B
Such an unfaithful bride
		C#m
Draped in dress
A
Threads of mine
C#m------A						c#m
         Sing it loud to drown out the feeling
A
When you're feeling much more odd than (even)
C#m				A
And half as true as dishonored seamen
C#m				  A
Well breathe Pacific and fight our demons


Chorus
E			B
Would you be depressed?
             C#m
If I attend that wedding
A
But only as a guest
E			  B
Such an unfaithful bride
		C#m
Draped in dress
A
Threads of mine


Do Same Chord Pattern

Refrain:
So arch your back
And flip your hair
Make eye contact so you know I care
You know I care.( You know I care)

Do Chorus:
But only as a guest
Such an unfaithful bride
Draped in dress
threads of my regret...regret!


We played this song with two guitars (one is rhythm) and percussion. Try it with your
friends, it really rocks! Thanks and please rate this tab.
Comments