From Autumn To Ashes - Im The Best At Ruining My Life Chords & Tabs

 

Im The Best At Ruining My Life Chords & Tabs

From Autumn To Ashes Chords & Tabs

Version: 1 Type: Tab 0 ratings
1 star 2 stars 3 stars 4 stars 5 stars
comments

Im The Best At Ruining My Life Tab

This is almost exact im sure but if not then feel free to e-mail me @-nightsk8er951@hotmail.com
Well here it is

Standard Tuning  EBDGAE

E---------------------------------------------------------------------------|
B----------0-----------------0------------------0------------------0--------|
G------0-----0---0-------0-----0---0--------0-----0---0--------0-----0---0--|
D----5---------0-------4---------0--------2---------0--------4---------0----|
A--7-----------------5------------------3------------------5----------------|
E---------------------------------------------------------------------------|
[ Tab from: http://www.guitartabs.cc/tabs/f/from_autumn_to_ashes/im_the_best_at_ruining_my_life_tab.html ]
E---------------------------------------------------------------------------|
B---------0------------------0------------------0------------------0--------|
G------0-----------------0-----0---0--------0-----0---0--------0-----0---0--|
D----5-----------------4---------0--------2---------0--------4---------0----|
A--7-----------------5------------------3------------------5----------------|
E---------------------------------------------------------------------------|

well there it is...im pretty sure its right so go ahead and hav some fun with it. Its an 
riff and easy to play well i g2g save the world now so you can mess around with this 
and play it over and over. And im off, L8r
Comments