From Autumn To Ashes - Fiction We Live Chords & Tabs

 

Fiction We Live Chords & Tabs

From Autumn To Ashes Chords & Tabs

Version: 1 Type: Tab 0 ratings
1 star 2 stars 3 stars 4 stars 5 stars
comments

Fiction We Live Tab

Song: The Fiction We Live
Artist: FROM AUTUMN TO ASHES

TUNING: EADGbe (standard)

               "You might be just what i need"        "No i would not change
e|-00000--00000--00000--00000-------------33333--33333--33333--33333-------|
B|-11111--33333--11111--33333-------------33333--33333--33333--33333-------|
G|-22222--22222--22222--22222-------------00000--00000--00000--00000-------|
D|-22222--22222--22222--22222-------------00000--00000--00000--00000-------|
A|-00000--00000--00000--00000-------------22222--22222--22222--22222-------|
E|----------------------------------------33333--33333--33333--33333-------|

  a thing"   "Been dreaming of this so  long" "But we only exist in this....
e|--11111--11111---11111--11111--11111--33333--33333--33333--33333---------|
B|--11111--11111---11111--11111--11111--33333--33333--33333--33333---------|
G|--22222--22222---22222--22222--22222--00000--00000--00000--00000---------|
D|--33333--33333---33333--33333--33333--00000--00000--00000--00000---------|
A|--33333--33333---33333--33333--33333--22222--22222--22222--22222---------|
E|--11111--11111---11111--11111--11111--33333--33333--33333--33333---------|

  song"   "The truth is i'm not worth the sorrow"      "But if you come and 
e|-00000--00000--00000--00000---------------33333--33333--33333--33333-----|
B|-11111--33333--11111--33333---------------33333--33333--33333--33333-----|
G|-22222--22222--22222--22222---------------00000--00000--00000--00000-----|
D|-22222--22222--22222--22222---------------00000--00000--00000--00000-----|
A|-00000--00000--00000--00000---------------22222--22222--22222--22222-----|
E|------------------------------------------33333--33333--33333--33333-----|
[ Tab from: http://www.guitartabs.cc/tabs/f/from_autumn_to_ashes/fiction_we_live_tab.html ]
meet me tomorow,i will hold you down, fold you in so deep, deep, deep in the
e|-------11111--11111---11111--11111---11111----------33333--33333--33333--|
B|-------11111--11111---11111--11111---11111----------33333--33333--33333--|
G|-------22222--22222---22222--22222---22222----------00000--00000--00000--|
D|-------33333--33333---33333--33333---33333----------00000--00000--00000--|
A|-------33333--33333---33333--33333---33333----------22222--22222--22222--|
E|-------11111--11111---11111--11111---11111----------33333--33333--33333--|

  fiction we live"      "I break in two over you"       "I break in two and 
e|-33333------0000--1111--0000-------1111-----0000--1111--0000-------3333--|
B|-33333------1111--1111--1111-------1111-----1111--1111--1111-------3333--|
G|-00000------2222--2222--0000-------0000-----2222--2222--0000-------0000--|
D|-00000------2222--3333--2222-------0000-----2222--3333--2222-------0000--|
A|-22222------0000--3333--3333-------2222-----0000--3333--3333-------2222--|
E|-33333------------1111-------------3333-----------1111-------------3333--|

 if a piece of you dies  Autumn i will bring you back to life" "of course
e|----0000---------1111--0000---1111-------------0000----1111------0000----|
B|----1111---------1111--1111---1111-------------1111----1111------1111----|
G|----2222---------2222--0000---0000-------------2222----2222------0000----|
D|----2222---------3333--2222---0000-------------2222----3333------2222----|
A|----0000---------3333--3333---2222-------------0000----3333------3333----|
E|-----------------1111---------3333---------------------1111--------------|

  i see you, i do"
e|--1111-------0~----------------------------------------------------------|
B|--1111-------1~----------------------------------------------------------|
G|--0000-------2~----------------------------------------------------------|
D|--0000-------2~----------------------------------------------------------|
A|--2222-------0~----------------------------------------------------------|
E|--3333-------------------------------------------------------------------|

this has been a public tablature brought to you by,

Corbs
Comments