From Autumn To Ashes - Every Reason To Chords & Tabs

 

Every Reason To Chords & Tabs

From Autumn To Ashes Chords & Tabs

Version: 2 Type: Tab 0 ratings
1 star 2 stars 3 stars 4 stars 5 stars
comments

Every Reason To Tab

From Autumn To Ashes
Every Reason To 
The Fiction We Live
Tuning-Standard
I have seen several tabs for this song and all of them seemed wrong so i made one
myself, I think most of its correct.  Please Rate. Thank you.


.=Palm Mute
/ and \ =slide


e|----------|
B|----------|
G|----------|
D|--9-------|(fade in)
A|--7-------|
E|----------|


e|------------------------------------|
B|------------------------------------|
G|.-----------------------------------|
D|--9--9999--9--9999--10-9-7-9-9------|
A|.-7--7777--7--7777--7--7------------|
E|------------------------------------|
       ....     ....

e|------------------------------------|
B|------------------------------------|
G|------------------------------------|
D|--9--9999--9--9999--10-9-7----------|
A|--7--7777--7--7777---------10-9-7---|
E|----------------------------------10|
       ....     ....

e|------------------------------------|
B|------------------------------------|
G|------------------------------------| (The Part in brackets is harmonized in 
D|--5--5555--5--5555-[7-5-4-5-5~~~]---|  pentotonic thirds the last two times you play it.)
A|--3--3333--3--3333--3-3-------------|
E|------------------------------------|
       ....     ....

e|------------------------------------|
B|------------------------------------|
G|-----------------------------------.| (x3)
D|--5--5555--5--5555--7-5-4-----------|
A|--3--3333--3--3333--------7-5-4----.|
E|--------------------------------5---|
       ....     ....


e|------------------------------------|
B|------------------------------------|
G|------------------------------------|
D|-------10---9-----10-9----9h10p9----|
A|--7-7-----7----7-------7---------10-|
E|------------------------------------|
    . .     .    .       .


e|--------------------------------------------------------------------------------|
B|--------------------------------------------------------------------------------|
G|.-12------17\16--11------17\16--9------17\16--11-----17\16--12-----17\16-14/16-.|(x2)
D|--x-(x12)-x------x-(x12)-x------x(12)--x--x---x-(x4)-x------x-(x4)-x------------|
A|.-10------15\14--9-------15\14--7------15\14--9------15\14--10-----15\14-12/14-.|
E|--------------------------------------------------------------------------------|
    

e|--------------------------|
B|--------------------------|
G|--------------------------|
D|-----5-4---5-4------------|
A|-----------------5h7-7----|
E|--00-----0-----0----------|
    ..     .     .       .

[ Tab from: http://www.guitartabs.cc/tabs/f/from_autumn_to_ashes/every_reason_to_tab_ver_2.html ]
e|--------------------------|
B|--------------------------|
G|--------------------------|    (if you listen Closely this part countiues.)
D|-----5-4---5-4------------|(x4)
A|-----------------5h7-7----|
E|--00-----0-----0----------|
 |  ..     .     .       .
 |                                           (play together.)
 |
e|---------------------3--------------------------------|
B|-----------------------3------------------------------|
G|---------------5-------------------------7------------|
D|--2------------5---------5--5---7--------7------------|
A|--2------------3------------5------5-----5------------|
E|--0-------------------------3---------3---------------|


e|-----------------------------------|
B|-----------------------------------|
G|-----------------------------------|
D|-----------------------------------|(x4)
A|------10-9-----12-10---5h7-7-------|
E|--00--------0--------0-------------|
 |   ..        .        .       .      (Harmonize)
 |
e|-----------------------------------|
B|-----------------------------------|
G|-----------------------------------|
D|------9-7-----10-9-----4h5-5-------|(x4)
A|-----------------------------------|
E|--00--------0--------0-------------|
    ..        .        .       


e|-----------------------------------|
B|-----------------------------------|
G|-----------------------------------|
D|-----10-9---10--9----10p9----------|(x4)
A|-------------------------10--------|
E|--00------0-------0----------------|
    ..      .       .


e|--------------------------------------------------------------------------------|
B|--------------------------------------------------------------------------------|
G|.-12------17\16--11------17\16--9------17\16--11-----17\16--12-----17\16-14/16-.|(x2)
D|--x-(x12)-x------x-(x12)-x------x(12)--x--x---x-(x4)-x------x-(x4)-x------------|
A|.-10------15\14--9-------15\14--7------15\14--9------15\14--10-----15\14-12/14-.|
E|--------------------------------------------------------------------------------| 


e|---------------------3--------------------------------|
B|-----------------------3------------------------------|
G|---------------5-------------------------7------------|
D|--2------------5---------5--5---7--------7------------|
A|--2------------3------------5------5-----5------------|
E|--0-------------------------3---------3---------------|



e|-----------------------------------|
B|-----------------------------------|
G|-----------------------------------|(x4)
D|--4---4-4---5---5-5----2-2-2-------|(Last 3 E5 chords arent played the 4th time)
A|--2---2-2---2---2-2----2-2-2-------|
E|--0---0-0---0---0-0----0-0-0-------|
        . .       . .    . . .
      

e|-----------------------------------------------|
B|-----------------------------------------------|
G|---11/12-x-12---5---11/12-x-12---5-------------|
D|---x--x--x-x----x---x-----x-x----x-------------| Repeat To end
A|---9-/10-x-10---3---9-/10-x-10---3-------------|
E|-----------------------------------------------|

Thats It. Please rate. Thankyou.
Comments