From Autumn To Ashes - Every Reason To Chords & Tabs

 

Every Reason To Chords & Tabs

From Autumn To Ashes Chords & Tabs

Version: 1 Type: Tab 0 ratings
1 star 2 stars 3 stars 4 stars 5 stars
comments

Every Reason To Tab

Gtr. 1
|------------------|
|------------------|
|------------------|
|-9-(volume swell)-|
|-7----------------|
|------------------|

Gtr. 1
|--------------------------------------------------|
|--------------------------------------------------|
|--------------------------------------------------|
|-9-99-99--10--9--7-7-9--9-99-99--10-9-7-----------|
|-7-77-77----------------7-77-77---------10-9-7----|
|-----------------------------------------------10-|
    mm                     mm

Gtr. 1
|----------------------------------------------|
|----------------------------------------------|
|----------------------------------------------|
|-5-55-55--6--5--3-3-5--5-55-55--6-5-3---------|
|-3-33-33---------------3-33-33--------6-5-3---|
|--------------------------------------------6-|
    mm                    mm

*Gtr. 2 enters here*

Gtr. 1
|--------------------------------------------------|
|--------------------------------------------------|
|--------------------------------------------------|
|-9-99-99--10--9--7-7-9--9-99-99--10-9-7-----------|
|-7-77-77----------------7-77-77---------10-9-7----|
|-----------------------------------------------10-|
    mm                     mm

Gtr. 2
|--------------------------------------------------|
|--------------------------------------------------|
|--------------------------------------------------|
|-9-99-99--10--9--7-7-9--9-99-99--10-9-7-----------|
|-7-77-77----------------7-77-77---------10-9-7----|
|-----------------------------------------------10-|
    mm                     mm

Gtr. 1
|----------------------------------------------|
|----------------------------------------------|
|----------------------------------------------|
|-5-55-55--6--5--3-3-5--5-55-55--6-5-3---------|
|-3-33-33---------------3-33-33--------6-5-3---|
|--------------------------------------------6-|
    mm                    mm

Gtr. 2
|--------------------------------------------------|
|--------------------------------------------------|
|--------------------------------------------------|
|-5-55-55--10--9--7-7-9--5-55-55--10-9-7-----------|
|-3-33-33----------------3-33-33---------10-9-7----|
|-----------------------------------------------10-|
    mm                     mm

Gtr. 1
|--------------------------------------------------|
|--------------------------------------------------|
|--------------------------------------------------|
|-9-99-99--10--9--7-7-9--9-99-99--10-9-7-----------|
|-7-77-77----------------7-77-77---------10-9-7----|
|-----------------------------------------------10-|
    mm                     mm

Gtr. 2
|--------------------------------------------------|
|--------------------------------------------------|
|--------------------------------------------------|
|-9-99-99--10--9--7-7-9--9-99-99--10-9-7-----------|
|-7-77-77----------------7-77-77---------10-9-7----|
|-----------------------------------------------10-|
    mm                     mm

Gtr. 1
|----------------------------------------------|
|----------------------------------------------|
|----------------------------------------------|
|-5-55-55--6--5--3-3-5--5-55-55--6-5-3---------|
|-3-33-33---------------3-33-33--------6-5-3---|
|--------------------------------------------6-|
    mm                    mm

Gtr. 2
|--------------------------------------------------|
|--------------------------------------------------|
|--------------------------------------------------|
|-5-55-55--10--9--7-7-9--5-55-55--10-9-7-----------|
|-3-33-33----------------3-33-33---------10-9-7----|
|-----------------------------------------------10-|
    mm                     mm

Gtr. 1
|----------------------|
|----------------------|
|----------------------|
|-10p9-7-10-9-7h9p7----|
|-------------------10-|
|----------------------|

Gtr. 1
|----------------------------------------------------------------------------------------------|
|----------------------------------------------------------------------------------------------|
|-12-------17-16-11-------17-16-9-------17-16-11------17-16-12------17-16-14-16-17-------17-16-|
|--x-(x12)--x--x--x-(x12)--x--x-x-(x12)--x--x--x-(x4)--x--x--x-(x4)--x--x--x--x--x-(x12)--x--x-|
|-10-------15-14--9-------15-14-7-------15-14--9------15-14-10------15-14-12-14-15-------15-14-|
|----------------------------------------------------------------------------------------------|

Gtr. 2
|----------------------------------------------------------------------------------------------|
|----------------------------------------------------------------------------------------------|
|----------------------------------------------------------------------------------------------|
|-14-------17-16-12-------17-16-10-------17-16-12------17-16-14-----------------14-------17-16-|
|--x-(x12)--x--x--x-(x12)--x--x--x-(x12)--x--x--x-(x4)--x--x--x-(x4)-------------x-(x12)--x--x-|
|-12-------15-14-10-------15-14--8-------15-14-10------15-14-12-----------------12-------15-14-|
[ Tab from: http://www.guitartabs.cc/tabs/f/from_autumn_to_ashes/every_reason_to_tab.html ]
Gtr. 1
|------------------------------------------------------------------------|
|------------------------------------------------------------------------|
|-12-------17-16-11-------17-16-9-------17-16-11-------17-16-14-16-17///-|
|--x-(x12)--x--x--x-(x12)--x--x-x-(x4)---x--x--x-(x4)---x--x--x--x--x----|
|-10-------15-14--9-------15-14-7-------15-14--9-------15-14-12-14-15///-|
|------------------------------------------------------------------------|

Gtr. 2
|------------------------------------------------------------------------|
|------------------------------------------------------------------------|
|------------------------------------------------------------------------|
|-14-------17-16-12-------17-16-10-------17-16-12------------------------|
|--x-(x12)--x--x--x-(x12)--x--x--x-(x4)--x--x--x-(x4)--------------------|
|-12-------15-14-10-------15-14--8-------15-14-10------------------------|

Gtr. 1
|------------------------|
|------------------------|
|------------------------|
|------------------------|
|-10p9-7-10-9----------7-|
|--------------9h10-10---|

Gtr. 1
|------------------------------|
|------------------------------|
|------------------------------|
|----------5-----------------7-|
|-2--------3--------5--------5-|
|-0-----------------3----------|

Gtr. 2
|------------2-----------------|
|--------------3---------------|
|----------------2----2--------|
|----------0--------0----------|
|------------------------------|
|------------------------------|

Gtr. 1
|-----------------|
|-----------------|
|-----------------|
|-10-9-10-9-6/7-7-| x4
|--8-7--8-7-4/5-5-|
|-----------------|
This part (1:09-1:19)is way off, couldn't figure it out for the life of me.

Gtr. 1
|----------------------|
|----------------------|
|----------------------|
|-10p9-7-10-9-7h9p7----|
|-------------------10-|
|----------------------|

Gtr. 1
|----------------------------------------------------------------------------------------------|
|----------------------------------------------------------------------------------------------|
|-12-------17-16-11-------17-16-9-------17-16-11------17-16-12------17-16-14-16-17-------17-16-|
|--x-(x12)--x--x--x-(x12)--x--x-x-(x12)--x--x--x-(x4)--x--x--x-(x4)--x--x--x--x--x-(x12)--x--x-|
|-10-------15-14--9-------15-14-7-------15-14--9------15-14-10------15-14-12-14-15-------15-14-|
|----------------------------------------------------------------------------------------------|

Gtr. 2
|----------------------------------------------------------------------------------------------|
|----------------------------------------------------------------------------------------------|
|----------------------------------------------------------------------------------------------|
|-14-------17-16-12-------17-16-10-------17-16-12------17-16-14-----------------14-------17-16-|
|--x-(x12)--x--x--x-(x12)--x--x--x-(x12)--x--x--x-(x4)--x--x--x-(x4)-------------x-(x12)--x--x-|
|-12-------15-14-10-------15-14--8-------15-14-10------15-14-12-----------------12-------15-14-|

Gtr. 1
|------------------------------------------------------------------|
|------------------------------------------------------------------|
|-12-------17-16-11-------17-16-9-------17-16-11-------17-16-14-16-|
|--x-(x12)--x--x--x-(x12)--x--x-x-(x4)---x--x--x-(x4)---x--x--x--x-|
|-10-------15-14--9-------15-14-7-------15-14--9-------15-14-12-14-|
|------------------------------------------------------------------|

Gtr. 2
|------------------------------------------------------------------|
|------------------------------------------------------------------|
|------------------------------------------------------------------|
|-14-------17-16-12-------17-16-10-------17-16-12------------------|
|--x-(x12)--x--x--x-(x12)--x--x--x-(x4)--x--x--x-(x4)--------------|
|-12-------15-14-10-------15-14--8-------15-14-10------------------|

Gtr. 1
|------------------------------|
|------------------------------|
|------------------------------|
|----------5-----------------7-|
|-2--------3--------5--------5-|
|-0-----------------3----------|

Gtr. 2
|------------2-----------------|
|--------------3---------------|
|----------------2----2--------|
|----------0--------0----------|
|------------------------------|
|------------------------------|

Gtr. 1
|------------------------------|
|------------------------------|
|------------------------------|
|----------5-----------------7-|
|-2--------3--------5--------5-|
|-0-----------------3----------|

Gtr. 2
|------------2-----------------|
|--------------3---------------|
|----------------2----2--------|
|----------0--------0----------|
|------------------------------|
|------------------------------|

Gtr. 1
|-----------------------|
|-----------------------|
|-----------------------|
|-4-x-2-x-4-x-2-x-2-2-2-| x 4
|-2-x-0-x-2-x-0-x-0-0-0-|
|-----------------------|
The fourth time through, leave out the last two chords.

Gtr. 1
|------------------|
|------------------|
|------------------|
|-4-(volume swell)-|
|-2----------------|
|------------------|

Gtr. 1
|---------------------------|
|---------------------------|
|-<5>-(played until the end)|
|-<5>-----------------------|
|---------------------------|
|---------------------------|
Comments