From Autumn To Ashes - Eulogy For An Angel Chords & Tabs

 

Eulogy For An Angel Chords & Tabs

From Autumn To Ashes Chords & Tabs

Version: 2 Type: Tab 0 ratings
1 star 2 stars 3 stars 4 stars 5 stars
comments

Eulogy For An Angel Tab

Ok, I was really bored so decided to tab this song
can't gaurantee its all 100% correct, but it is really
close. Well, enjoy!

Standard tuning: EADGBE

/=slide up
\=slide down
h=hammer on
p=pull off
^=bend
p.m.=palm mute

intro
e|----------------------------------------------------------
B|----------------------------------------------------------
G|----------------------------------------------------------
D|----------------------------------------------------------
A|-----7-9------7-9-----7------5-9-----5-9-9h10p9-7-5-------
E|-0-0------0-0-----0-0----0-0-----0-0----------------------
  p.m. E notes
[ Tab from: http://www.guitartabs.cc/tabs/f/from_autumn_to_ashes/eulogy_for_an_angel_tab_ver_2.html ]
e|----------------------------------------------------------
B|----------------------------------------------------------
G|----------------------------------------------------------
D|----------------------------------------------------------
A|----3-7-----3-7-----7-----5-9-----------------------------
E|-0-0----0-0-----0-0---0-0-----0-0-------------------------

this leads into the verse
e|----------------------------------------------------------
B|----------------------------------------------------------
G|-/9-11-12-11-/14-12-11-/16-14-16-17-19--------------------
D|----------------------------------------------------------
A|-/7-9--10-9--/12-10-9--/14-12-14-15-17--------------------
E|----------------------------------------------------------

acoustic part:
e|----------------------------------------------------------
B|----------------------------------------------------------
G|-----0-----0-----0------0-----0--------0-----0-------0----
D|-2-4---2-4---2-4----0-4---0-4----0---2-----2---2---4------
A|-----------------------------------3-----3-------5--------
E|----------------------------------------------------------

and thats pretty much it its mosty just the intro except for the acoustic
part great song too
Comments