From Autumn To Ashes - Chloroform Perfume Chords & Tabs

 

Chloroform Perfume Chords & Tabs

From Autumn To Ashes Chords & Tabs

Version: 4 Type: Tab

Chloroform Perfume Tab

FATA- Chloroform Perfume [solo]

I saw the other solo that was submitted... and I the way i figured it out
is different... better or worse??  you decide! ;)



E ----------------------------------------------------------------------|
B ----------------------------------------------------------------------|
G --7------------------7------------------7-----------------------------|
D ------10-9--10^9---------10-9--10^9----------10-9--10^9---9-----------|
A ----------------10-----------------10------------------10-------------|
E ----------------------------------------------------------------------|

[ Tab from: http://www.guitartabs.cc/tabs/f/from_autumn_to_ashes/chloroform_perfume_tab_ver_4.html ]
E ----------------------------------------------------------------------|
B ----------------------------------------------------------------------|
G ------------7-----------------------------------5/7-------------------|
D --9-10-9-10---10-9-10---9------9-9-9/10---9---------10-10---9---------|
A ----------------------------10--------------10------------------------|
E ----------------------------------------------------------------------|


E ----------------------------------------------------------------------|
B --8-7-----------------------------------------------------------------|
G ------9-7-9----7------------------------------------------------------|
D ------------10---9-10-7-9----7----------------------------------------|
A --------------------------10---9-10-7---------------------------------|
E ----------------------------------------------------------------------|

*sorry if it's hard to understand... this is the first tab I've ever submitted.

E-mail me if you have any errors on it or it's just completely sucks:
  Damzlndstress01@aol.com