From Autumn To Ashes - Cherry Kiss Chords & Tabs

 

Cherry Kiss Chords & Tabs

From Autumn To Ashes Chords & Tabs

Version: 2 Type: Tab 0 ratings
1 star 2 stars 3 stars 4 stars 5 stars
comments

Cherry Kiss Tab

The first person to do this is stupid, this is how it is really played

Cherry Kiss
FATA

e-----------------------------------------------------------------
B-----------------------------------------------------------------
G-----------------------------------------------------------------
D-5-4-2-5-4-2-5-4-2-4-2-0-4-2-0-4-2-0-2-0-2-0-2-0-----------------
A----------------------------------------3---3---3----------------
E-----------------------------------------------------------------
[ Tab from: http://www.guitartabs.cc/tabs/f/from_autumn_to_ashes/cherry_kiss_tab_ver_2.html ]
then....
e-----------------------------------------------------------------
B-----------------------------------------------------------------
G-----------------------------------------------------------------
D-----------------------------------------------------------------
A-2-2-2-2--2-2-2-2--2-2-2-2---------------------------------------
E-0-0-0-0--0-0-0-0--0-0-0-0---------------------------------------

e-----------------------------------------------------------------
B-----------------------------------------------------------------
G-----------------------------------------------------------------
D-5-4-2-5-4-2-5-4-2-4-2-0-4-2-0-4-2-0-2-0-2-0-2-0-----------------
A----------------------------------------3---3---3----------------
E-----------------------------------------------------------------

e-----------------------------------------------------------------
B-----------------------------------------------------------------
G-----------------------------------------------------------------
D-2222-4444-5555-5-4-2--0000-2222-4444-4-2-0------0000-2222--2-0--
A--------------------------------------------3333-----------3-----
E-----------------------------------------------------------------
Comments