From Autumn To Ashes - Autumns Monologue Chords & Tabs

 

Autumns Monologue Chords & Tabs

From Autumn To Ashes Chords & Tabs

Version: 1 Type: Tab 0 ratings
1 star 2 stars 3 stars 4 stars 5 stars
comments

Autumns Monologue Tab

   
-------------------------------------------------------------------------------
                      Autumn's Monologue - From autumn to Ashes
-------------------------------------------------------------------------------

Tuning: Standard

Verse
     Am         A4         Am         A4
e|---0----------0----------0----------0-------------------------|
B|---1----------3----------1----------3-------------------------|
G|---2----------2----------2----------2-------------------------|
D|---2----------2----------2----------2-------------------------|
A|---0----------0----------0----------0-------------------------|
E|---0----------0----------0----------0-------------------------|

     G        Gadd9        G        Gadd9
e|---0----------3----------0----------3-------------------------|
B|---3----------3----------3----------3-------------------------|
G|---0----------0----------0----------0-------------------------|
D|---0----------0----------0----------0-------------------------|
A|---2----------2----------2----------2-------------------------|
E|---3----------3----------3----------3-------------------------|

     F          Fmoded                F          F         D9/F
e|---0----------3----------3----------0----------0----------0---|
B|---1----------1----------1----------1----------1----------3---|
G|---2----------2----------2----------2----------2----------2---|
D|---3----------3----------3----------3----------3----------3---|
A|---0----------0----------0----------0----------0----------0---|
E|---0----------0----------0----------0----------0----------0---|
[ Tab from: http://www.guitartabs.cc/tabs/f/from_autumn_to_ashes/autumns_monologue_tab.html ]
     G        Gadd9        G        Gadd9
e|---0----------3----------0----------3-------------------------|
B|---3----------3----------3----------3-------------------------|
G|---0----------0----------0----------0-------------------------|
D|---0----------0----------0----------0-------------------------|
A|---2----------2----------2----------2-------------------------|
E|---3----------3----------3----------3-------------------------|

Chorus
     Am         F          C          G   Gadd9
e|---0----------0----------0----------0---h3--------------------|
B|---1----------1----------1----------3-------------------------|
G|---2----------2----------0----------0-------------------------|
D|---2----------3----------2----------0-------------------------| x4
A|---0----------0----------3----------2-------------------------|
E|---0----------0----------0----------3-------------------------|

Bridge (Downstrokes)
     Am          F          C         C Gadd9     Dm Am
e|---0-0--------0-0--------0-0--------3-3--------3-1-0----------|
B|---1-1--------1-1--------1-1--------1-3--------3-3-1----------|
G|---2-2--------2-2--------0-0--------0-0--------0-2-2----------|
D|---2-2--------3-3--------2-2--------2-0--------0-0-2----------|
A|---0-0--------0-0--------3-3--------3-2--------2-0-0----------|
E|---0-0--------0-0--------0-0--------0-3--------3-0-0----------|
 
Ending
     Am         G          F          G                  Am
e|---0----------0----------0----------0------------------0------|
B|---1----------3----------1----------3------------------1------|
G|---2----------0----------2----------0------------------2------|
D|---2----------0----------3----------0------------------2------|
A|---0----------2----------0----------2------------------0------|
E|---0----------3----------0----------3------------------0------|


| /  slide up
| \  slide down
| h  hammer-on
| p  pull-off
| ~  vibrato
| +  harmonic
| x  Mute note
===============================================================================
Comments