Frogs - New York Shitty Chords & Tabs

 

New York Shitty Chords & Tabs

Frogs Chords & Tabs

Version: 1 Type: Tab 0 ratings
1 star 2 stars 3 stars 4 stars 5 stars
comments

New York Shitty Tab

   

        NEW YORK SHITTY

        Written & Recorded by THE FROGS - tab by Jesse Alora
        Queen Boys: A Tribute To The Frogs  -  http://www.queenboys.com


	INTRO:

	e-------------------------------------
	B-------------0--1------------3-1-0---
	G---------2---------------2-----------  REPEAT
	D---3---3---3-------3---3---3---------
	A---0---------------0-----------------
	E-------------------------------------

	
	VERSE:

	A       D       A       D


                           A                D
	i'm gonna take my act to new york shitty
	
	   A                             D
	i can't imagine any place more pretty
	
	                F       E       A
	than new york shitty

	
	           A                 D
	i made my mark in new york shitty

	   A                                   D
	i sold my soul for a start more's the pity
[ Tab from: http://www.guitartabs.cc/tabs/f/frogs/new_york_shitty_tab.html ]
	              F       E       A
	in new york shitty


	CHORUS:
	
	F        A
	felt so bad 
	
	F               A
	it didn't even hurt
	
	F        A
	felt so bad
	
	                        E
	i nearly pulled a kurt

	F         A
	felt so good
	
	F                     A
	it couldn't feel no worse
	
	F        A
	felt so good
	
	                        E
	i nearly pulled a kurt

	
	SOLO:
	
	E-------------------------------------------------------------------
	B-------------------------------------------------------------------
	G-------------------------------------------------------------------
	D---6--6--6/4--4/2--2/1--1--4--2-2----2-2-1-1-----------6-------7---
	A---------------------------------------------4-4-2-2---------------
	E-------------------------------------------------------------------
	

	REPEAT INTRO


	VERSE:

	i took my ass from new york shitty
	i can't imagine any place less pretty
	than new york shitty

	
Comments