Frenzal Rhomb - Theres Your Dad Chords & Tabs

 

Theres Your Dad Chords & Tabs

Frenzal Rhomb Chords & Tabs

Version: 2 Type: Bass Tab 0 ratings
1 star 2 stars 3 stars 4 stars 5 stars
comments

Theres Your Dad Bass Tab

frenzal rhomb - THERE'S YOUR DAD bassTAB

tabbed by acid -= acid@uq.net.au =-

intro:
G [------------]
D [-2-0--------]
A [-----2/15\2-]
E [------------]

verse:
G [------------------------------------------]
D [------------------------------------------]
A [-2--2-0-2--2-0-2-2-2--2--2-0-2--2-0-2-2-2-]
E [------------------------------------------]
[ Tab from: http://www.guitartabs.cc/tabs/f/frenzal_rhomb/theres_your_dad_btab_ver_2.html ]
second part:				into chorus bit:
G [---------------------------]		[-----------------]
D [---------------------------]		[-----------------]
A [---------------------------]		[-----------------]
E [-0-0-0-0-0-0-0-0-0-0-0-0-0-]		[-3-3-3-3-3-3-3-3-]

chorus:
G [-------------------------------]
D [-------------------------------]
A [-5-----------------------------]
E [----5--0-0--7---3-3-3-3-5-5-5-5]

DAD:
G [-------------]
D [-------------]
A [-------------]
E [-0--7-7--3-3-]
Comments