Frenzal Rhomb - Sodom The Clown Chords & Tabs

 

Sodom The Clown Chords & Tabs

Frenzal Rhomb Chords & Tabs

Version: 4 Type: Tab 0 ratings
1 star 2 stars 3 stars 4 stars 5 stars
comments

Sodom The Clown Tab

-------------------------------------------------------------------------------
			     SODOM THE CLOWN - Frenzal Rhomb
-------------------------------------------------------------------------------

By:Luke Lundberg   Email: kane_72@hotmail.com
i'm only including the chords,  uhave to work out the strumming yourself.
there is only one little bit which i couldn't get. DETUNE ALL STRINGS HALF A
STEP!
[ Tab from: http://www.guitartabs.cc/tabs/f/frenzal_rhomb/sodom_the_clown_tab_ver_4.html ]
Intro-Lead
e|-----0-------------------------------12------------12----------------------|
B|-9-9---10-12-14-15-14-12--10-10-9-10----10-10-9-10-------------------------|
G|---------------------------------------------------------------------------|
D|---------------------------------------------------------------------------|
A|---------------------------------------------------------------------------|
E|---------------------------------------------------------------------------|
  Intro-Rythem
e|---------------------------------------------------------------------------|
B|---------------------------------------------------------------------------|
G|-9---7---------------------------------------------------------------------|
D|-9---7---7-----------------------------------------------------------------|
A|-7---5---7-----------------------------------------------------------------|
E|---------5-----------------------------------------------------------------|
verse "once twice, shoes are oversized.." didn't get all of this bit.
e|---------------------------------------------------------------------------|
B|---------------------------------------------------------------------------|
G|-7-------------------------------------------------------------------------|
D|-7-------------------------------------------------------------------------|
A|-5----3-2-0----------------------------------------------------------------|
E|------------3--------------------------------------------------------------|
  pre chorus "he's so happy, but that's not that funny.."
e|---------------------------------------------------------------------------|
B|---------------------------------------------------------------------------|
G|-5--7---10--9--------------------------------------------------------------|
D|-5--7---10--9--10--5-------------------------------------------------------|
A|-3--5---8---7--10--5-------------------------------------------------------|
E|---------------8---3-------------------------------------------------------|
  "sodom the clown, he makes us smile and frown.."
e|---------------------------------------------------------------------------|
B|---------------------------------------------------------------------------|
G|-7--10---------------------------------------------------------------------|
D|-7--10--10--5--------------------------------------------------------------|
A|-5--8---10--5--------------------------------------------------------------|
E|--------8---3--------------------------------------------------------------|
  riff after the prechorus
e|---------------------------------------------------------------------------|
B|---------------------------------------------------------------------------|
G|---------------------------------------------------------------------------|
D|---------------------------------------------------------------------------|
A|-0-7-5---0-7-5---0-7-5---0-7-9-7-5-7-5---0-7-5---0-7-9-7-5-7---------------|
E|---------------------------------------------------------------------------|
  chorus "we laugh, we cry, if it hurts we don't ask why.."
e|---------------------------------------------------------------------------|
B|---------------------------------------------------------------------------|
G|-7-------------------9--7-6-7-6-7-7----------------------------------------|
D|-7--7--9--5-------3--9--7-------5-5----------------------------------------|
A|-5--7--9--5-------3--7--5-------5-5----------------------------------------|
E|----5--7--3-------1--------------------------------------------------------|
  bridge "blowing ballons, noones immune.." play palm muted.
e|---------------------------------------------------------------------------|
B|---------------------------------------------------------------------------|
G|-----------9--7-6-7-6-7-7--------------------------------------------------|
D|--7--5--3--9--7-------5-5--------------------------------------------------|
A|--7--5--3--7--5-------5-5--------------------------------------------------|
E|--5--3--1------------------------------------------------------------------|
 after that, do the intro riff but it is a little diff. i got a little of it.
e|-----0--------------------------------12-------------12--12-10-9-7-10-9-7-9|
B|-9-9---10-12-14-15-14-12--10-10-9-10-----10-10-9-10------------------------|
G|---------------------------------------------------------------------------|
D|---------------------------------------------------------------------------|
A|---------------------------------------------------------------------------|
E|---------------------------------------------------------------------------|
  play the chorus as normal but at the end it changes
e|---------------------------------------------------------------------------|
B|---------------------------------------------------------------------------|
G|-7--5--3-----7-------------------------------------------------------------|
D|-7--5--3--5--7-------------------------------------------------------------|
A|-5--3--1--5--5-------------------------------------------------------------|
E|----------3----------------------------------------------------------------|

===============================================================================
Comments