Frenzal Rhomb - Sodom The Clown Chords & Tabs

 

Sodom The Clown Chords & Tabs

Frenzal Rhomb Chords & Tabs

Version: 3 Type: Tab 0 ratings
1 star 2 stars 3 stars 4 stars 5 stars
comments

Sodom The Clown Tab

#----------------------------------PLEASE NOTE--------------------------------#
#This file is the author's own work and represents their interpretation of the#
#song. You may only use this file for private study, scholarship, or research.#
#-----------------------------------------------------------------------------#
#-- File created with Instab - http://www.pconline.com/~smcarey/instab.html --#
#-----------------------------------------------------------------------------#

Author/Artist: Frenzal Rhomb
Title: Sodom The Clown
Album: Shut Your Mouth (Epitaph release)
Transcribed by: Luke Lundberg
Email: kane_72@hotmail.com

only 5 more songs to work out from shut your mouth :-). to make this song easier, it is best to detune all 
down half a step, it will make the lead riff alot easier to play. there is one bit i didn't get, during 
verse when he plays the D5 chord, there is a little riff after that which i couln't hear properly, i only got4 notes lol. email me wit comments or querys.

-----0-------------------------------12------------12-------------------------|
-9-9---10-12-14-15-14-12--10-10-9-10----10-10-9-10----------------------------|
------------------------------------------------------------------------------|
------------------------------------------------------------------------------|
------------------------------------------------------------------------------|
------------------------------------------------------------------------------|
 play this very fast. it is basically played thruout verse.

------------------------------------------------------------------------------|
------------------------------------------------------------------------------|
-9---7------------------------------------------------------------------------|
-9---7---7--------------------------------------------------------------------|
-7---5---7--------------------------------------------------------------------|
---------5--------------------------------------------------------------------|
 these chords come in whilst lead is playing above riff

------------------------------------------------------------------------------|
------------------------------------------------------------------------------|
--7---------------------------------------------------------------------------|
--7---------------------------------------------------------------------------|
--5-----3-2-0-----------------------------------------------------------------|
--------------3---------------------------------------------------------------|
 "once, twice, shoes are oversized..."

------------------------------------------------------------------------------|
------------------------------------------------------------------------------|
-5--7---10--9-----------------------------------------------------------------|
-5--7---10--9--10-5-----------------------------------------------------------|
-3--5---8---7--10-5-----------------------------------------------------------|
----------------8-3-----------------------------------------------------------|
 "He's so happy but that's not that funny..."
[ Tab from: http://www.guitartabs.cc/tabs/f/frenzal_rhomb/sodom_the_clown_tab_ver_3.html ]
------------------------------------------------------------------------------|
------------------------------------------------------------------------------|
-7--10------------------------------------------------------------------------|
-7--10--10--5-----------------------------------------------------------------|
-5---8--10--5-----------------------------------------------------------------|
---------8--3-----------------------------------------------------------------|
 "he makes us smile and frown.."

------------------------------------------------------------------------------|
------------------------------------------------------------------------------|
------------------------------------------------------------------------------|
------------------------------------------------------------------------------|
-0-7-5---0-7-5---0-7-5---0-7-9-7-5-7---5-0-7-5---0-7-5---0-7-9-7-5-7----------|
------------------------------------------------------------------------------|
 little riff after verse.

------------------------------------------------------------------------------|
------------------------------------------------------------------------------|
-7----------------9-7-6-7-6-7-7-----------------------------------------------|
-7--7--9--5----3--9-7-------7-7-----------------------------------------------|
-5--7--9--5----3--7-5-------5-5-----------------------------------------------|
----5--7--3----1--------------------------------------------------------------|
 "we laugh, we cry if it hurts, we don't ask why..."

------------------------------------------------------------------------------|
------------------------------------------------------------------------------|
------------9--7-6-7-6-7-7----------------------------------------------------|
-7---5---3--9--7-------7-7----------------------------------------------------|
-7---5---3--7--5-------5-5----------------------------------------------------|
-5---3---1--------------------------------------------------------------------|
 "blowing balloons, no ones immune.."  play p.m. repeat intro riff. it is a

-----0-------------------------------12------------12---12-10-9-7-10-9-7-9----|
-9-9---10-12-14-15-14-12--10-10-9-10----10-10-9-10----------------------------|
------------------------------------------------------------------------------|
------------------------------------------------------------------------------|
------------------------------------------------------------------------------|
------------------------------------------------------------------------------|
 little different though.i couldn't get much but it is around that kinda.

------------------------------------------------------------------------------|
------------------------------------------------------------------------------|
-7--5--3-----7----------------------------------------------------------------|
-7--5--3--5--7----------------------------------------------------------------|
-5--3--1--5--5----------------------------------------------------------------|
----------3-------------------------------------------------------------------|
 play the chorus as normal but at the end of it, it changes.  have fun!
Comments