Frenzal Rhomb - Punch In The Face Chords & Tabs

 

Punch In The Face Chords & Tabs

Frenzal Rhomb Chords & Tabs

Version: 3 Type: Bass Tab 0 ratings
1 star 2 stars 3 stars 4 stars 5 stars
comments

Punch In The Face Bass Tab

   
Title: Punch in the face                                         (BASS)
Artist: Frenzal rhomb
Tuning: Standard (G,D,A,E)
Tabbed by Rory cornell
This song is easy to play, Its just takes time to remember the song,  I Reckon this tab is perfectly right.
 H= Hammer on                Have fun !!!!!
                            
INTRO
      G|----------------------------------------------------|
      D|----------------------------------------------------|Do this  2 Times 
      A|--------4h54h54h5--1-1-1--2h32h32h3-----------------|Do this Fast
      E|-3-3-3----------------------------------------------|  


      G|----------------------------------------------------|
      D|----------------------------------------------------|Do this 8 Times
      A|----------5-5-5-5--2-2-2-2--3-3-3-3-----------------|Do this fast
      E|-3-3-3-3--------------------------------------------|
        

      G|----------------------------------------------------|
      D|----------------------------------------------------|Do this 2 Times 
      A|-------------5--5--5--5---2--2--2--2---3--3--3--3---|Do this slower
      E|-3--3--3--3-----------------------------------------|
        On the second time of this, above this writing,  
        Do this Below
                                                     
      G|----------------------------------------------------|
      D|----------------------------------------------------|
      A|-------------5--5--5--5---2--2--2--2----------------|Do this slower
      E|-3--3--3--3-----------------------------------------|


      G|----------------------------------------------------|
      D|----------------------------------------------------|Do this 6 times
      A|----------5-5-5-5--2-2-2-2--3-3-3-3-----------------|Do this fast
      E|-3-3-3-3--------------------------------------------|
                       But on the sixth time do this, below

      G|----------------------------------------------------|
      D|----------------------------------------------------|
      A|----------5-5-5-5-----------------------------------|Do this fast
      E|-3-3-3-3--------------------------------------------|
                      
[ Tab from: http://www.guitartabs.cc/tabs/f/frenzal_rhomb/punch_in_the_face_btab_ver_3.html ]
                       
      G|----------------------------------------------------|
      D|----------------------------------------------------|Do this 2 times
      A|-------------5--5--5--5---2--2--2--2---3--3--3--3---|Do this slower
      E|-3--3--3--3-----------------------------------------|
                      But on the second time do this, below

      G|----------------------------------------------------|
      D|----------------------------------------------------|Do this slower
      A|-------------5--5--5--5---2--2--2--2----------------|
      E|-3--3--3--3-----------------------------------------|


      G|--------------------------------------------------------------------|
      D|--------------------------------------------------------------------|Do this twice
      A|-------------5--5--5--5---7--7--7--7---5--5--5--5---3-3-3-3-3-3-3-3-|Do this slower
      E|-3--3--3--3---------------------------------------------------------|


      G|----------------------------------------------------|
      D|----------------------------------------------------|Do this  2 Times 
      A|--------4h54h54h5--1-1-1--2h32h32h3-----------------|Do this Fast
      E|-3-3-3----------------------------------------------|  


      G|----------------------------------------------------|
      D|----------------------------------------------------|Do this 6 times
      A|----------5-5-5-5--2-2-2-2--3-3-3-3-----------------|Do this fast
      E|-3-3-3-3--------------------------------------------|
                       But on the sixth time do this, below

      G|----------------------------------------------------|
      D|----------------------------------------------------|
      A|----------5-5-5-5-----------------------------------|Do this fast
      E|-3-3-3-3--------------------------------------------|
      
                 
      G|----------------------------------------------------|               ||-----||
      D|----------------------------------------------------|Do this 4 times||-----||End on String E, Fret 3
      A|-------------5--5--5--5---2--2--2--2---3--3--3--3---|Do this slower ||-----||
      E|-3--3--3--3-----------------------------------------|               ||--3--||
                
                              I have layed the tab out for you so its easyer to read 
                                            Have fun playing this song!
Comments