Frenzal Rhomb - Home Made Video Chords & Tabs

 

Home Made Video Chords & Tabs

Frenzal Rhomb Chords & Tabs

Version: 2 Type: Tab 0 ratings
1 star 2 stars 3 stars 4 stars 5 stars
comments

Home Made Video Tab

#----------------------------------PLEASE NOTE--------------------------------#
#This file is the author's own work and represents their interpretation of the#
#song. You may only use this file for private study, scholarship, or research.#
#-----------------------------------------------------------------------------#
#-- File created with Instab - http://www.pconline.com/~smcarey/instab.html --#
#-----------------------------------------------------------------------------#

Author/Artist: Frenzal Rhomb
Title: Home Made Video
Album: Shut Your Mouth
Transcribed by: Luke Lundberg
Email: kane_72@hotmail.com

well here i am again with yet another song off shut your mouth! ok for this song u have to detune all strings half a step. i will include the chords, u work out the rythem by listenin to cd :-) any q's or comments, email me

------------------------------------------------------------------------------
------------------------------------------------------------------------------
------------------------------------------------------------------------------
-9----7----5----7----9--------------------------------------------------------
-9----7----5----7----9--------------------------------------------------------
-7----5----3----5----7--------------------------------------------------------
 you shook us all up you tripped us all out...                                

------------------------------------------------------------------------------
------------------------------------------------------------------------------
-7-----9----------------------------------------------------------------------
-7--7--9--10------------------------------------------------------------------
-5--7--7--10------------------------------------------------------------------
----5-----8-------------------------------------------------------------------
 it's alright, can't see your face at all..                                   
[ Tab from: http://www.guitartabs.cc/tabs/f/frenzal_rhomb/home_made_video_tab_ver_2.html ]
------------------------------------------------------------------------------
------------------------------------------------------------------------------
------------------------------------------------------------------------------
-9----7----5----7----9--------------------------------------------------------
-9----7----5----7----9--------------------------------------------------------
-7----5----3----5----7--------------------------------------------------------
 weren't so obscene, your the cinema queen...                                 

------------------------------------------------------------------------------
------------------------------------------------------------------------------
-7-----9----------------------------------------------------------------------
-7--7--9--10------------------------------------------------------------------
-5--7--7--10------------------------------------------------------------------
----5-----8-------------------------------------------------------------------
 it's alright, can't see your face at all..                                   

------------------------------------------------------------------------------
------------------------------------------------------------------------------
----------7-------------------------------------------------------------------
-9--2--5--7-------------------------------------------------------------------
-9--2--5--5-------------------------------------------------------------------
-7--0--3----------------------------------------------------------------------
 now my blood runs cold as my memory unfolds..                                

------------------------------------------------------------------------------
------------------------------------------------------------------------------
------------------------------------------------------------------------------
-9--2--7--5-------------------------------------------------------------------
-9--2--7--5-------------------------------------------------------------------
-7--0--5--3-------------------------------------------------------------------
 in the background it was raining...                                          

------------------------------------------------------------------------------
------------------------------------------------------------------------------
------------------------------------------------------------------------------
-9---7---5--------------------------------------------------------------------
-9---7---5--------------------------------------------------------------------
-7---5---3--------------------------------------------------------------------
 rpeat chorus then "my blood runs cold" bit. then the last chorus is this     

Comments