Frenzal Rhomb - Home And Away Chords & Tabs

 

Home And Away Chords & Tabs

Frenzal Rhomb Chords & Tabs

Version: 2 Type: Tab 0 ratings
1 star 2 stars 3 stars 4 stars 5 stars
comments

Home And Away Tab

#----------------------------------PLEASE NOTE--------------------------------#
#This file is the author's own work and represents their interpretation of the#
#song. You may only use this file for private study, scholarship, or research.#
#-----------------------------------------------------------------------------#
#-- File created with Instab - http://www.pconline.com/~smcarey/instab.html --#
#-----------------------------------------------------------------------------#

Author/Artist: Frenzal Rhomb
Title: Home And Away
Album: Dick Sandwich
Transcribed by: luke lundberg
Email: kane_72@hotmail.com

this is a piss easy song, great cover track by frenzal rhomb!
[ Tab from: http://www.guitartabs.cc/tabs/f/frenzal_rhomb/home_and_away_tab_ver_2.html ]
------------------------------------------------------------------------------
------------------------------------------------------------------------------
-------------------------------------------------5-5-5-5-5-5-5-5--7-7-7-7-7---
-5-5-5-5-5-5-5-5-5-5-5-5--5-4-2-2-2-2-2-2-2-2-2--5-5-5-5-5-5-5-5--7-7-7-7-7---
-5-5-5-5-5-5-5-5-5-5-5-5--5-4-2-2-2-2-2-2-2-2-2--3-3-3-3-3-3-3-3--5-5-5-5-5---
-3-3-3-3-3-3-3-3-3-3-3-3--3-2-0-0-0-0-0-0-0-0-0-------------------------------
  listen 2 song to get correct no. times of strumming. repeat 1 more time     

------------------------------------------------------------------------------
------------------------------------------------------------------------------
----------------------------------------------7-7-7-7-7-7-7-7-9-9-9-9-9-9-9---
--7-7-7-7-7-7-7-7-7-7-7--7-6-4-4-4-4-4-4-4-4--7-7-7-7-7-7-7-7-9-9-9-9-9-9-9---
--7-7-7-7-7-7-7-7-7-7-7--7-6-4-4-4-4-4-4-4-4--5-5-5-5-5-5-5-5-7-7-7-7-7-7-7---
--5-5-5-5-5-5-5-5-5-5-5--5-4-2-2-2-2-2-2-2-2----------------------------------
  chorus                                                                      

------------------------------------------------------------------------------
------------------------------------------------------------------------------
-11-11-11-11-11-11-11-11------------------------------------------------------
-11-11-11-11-11-11-11-11------------------------------------------------------
-09-09-09-09-09-09-09-09------------------------------------------------------
------------------------------------------------------------------------------
      that's all there is to it                                               

Comments