Frenzal Rhomb - Home And Away Chords & Tabs

 

Home And Away Chords & Tabs

Frenzal Rhomb Chords & Tabs

Version: 1 Type: Tab 0 ratings
1 star 2 stars 3 stars 4 stars 5 stars
comments

Home And Away Tab

   
------------------------------------------------------------------------------- 
HOME & AWAY - Frenzal Rhomb 
------------------------------------------------------------------------------- 

Tabbed By :John Greive (punk_in_drublic57@hotmail.com) 


Intro

e|------------------------------------------------------------ 
B|------------------------------------------------------------ 
G|------------------------------------------------------------ 
D|---------------------------------5-5-5-5-5-5-5-5-5-5-7-7-7-7 
A|-5-5-5-5-5-5-5-5-4-2-2-2-2-2-2-2-3-3-3-3-3-3-3-3-3-3-5-5-5-5 
E|-3-3-3-3-3-3-3-3-2-0-0-0-0-0-0-0---------------------------- 

you know we belong together........ 
e|------------------------------------------------------------ 
B|------------------------------------------------------------ 
G|------------------------------------------------------------ 
D|---------------------------------5-5-5-5-5-5-5-5-5-5-7-7-7-7 
A|-5-5-5-5-5-5-5-5-4-2-2-2-2-2-2-2-3-3-3-3-3-3-3-3-3-3-5-5-5-5 
E|-3-3-3-3-3-3-3-3-2-0-0-0-0-0-0-0---------------------------- 
[ Tab from: http://www.guitartabs.cc/tabs/f/frenzal_rhomb/home_and_away_tab.html ]
And from the very first moment........ 
e|------------------------------------------------------------------ 
B|------------------------------------------------------------------ 
G|------------------------------------------------------------------ 
D|---------------------------------5-5-5-5-5-5-5-7-7-7-7-9-9-9-9-9-9 
A|-5-5-5-5-5-5-5-5-4-2-2-2-2-2-2-2-3-3-3-3-3-3-3-5-5-5-5-7-7-7-7-7-7 
E|-3-3-3-3-3-3-3-3-2-0-0-0-0-0-0-0---------------------------------- 

Hold me in your arms...... 
e|------------------------------------------------------------------------------------------------
B|------------------------------------------------------------------------------------------------
G|------------------------------------------------------------------------------------------------
D|---------------------------------7-7-7-7-7-7-7-7-7-7-9-9-9-9-9-9-11-11-11-11-11-11-9-9-9-9-9-9-9 
A|-7-7-7-7-7-7-7-7-6-4-4-4-4-4-4-4-5-5-5-5-5-5-5-5-5-5-7-7-7-7-7-7--9--9--9--9--9--9-7-7-7-7-7-7-7
E|-5-5-5-5-5-5-5-5-4-2-2-2-2-2-2-2----------------------------------------------------------------

Let me be the one that you turn to...... 
e|------------------------------------------------------
B|------------------------------------------------------
G|------------------------------------------------------
D|---------------------------------7-7-7-7-7-7-7-7-7-7-9
A|-7-7-7-7-7-7-7-7-6-4-4-4-4-4-4-4-5-5-5-5-5-5-5-5-5-5-7
E|-5-5-5-5-5-5-5-5-4-2-2-2-2-2-2-2----------------------


May not be the exact number of strums, you'll get the idea though.  
Comments