Frenzal Rhomb - Home And Away Chords & Tabs

 

Home And Away Chords & Tabs

Frenzal Rhomb Chords & Tabs

Version: 1 Type: Bass Tab 0 ratings
1 star 2 stars 3 stars 4 stars 5 stars
comments

Home And Away Bass Tab

'Home And Away' -- Bass Tab
Performed by Frenzal Rhomb
From the album "Dick Sandwich" on ? Records
Music and Lyrics by: Frenzal Rhomb
(c) 199? ? Records
---------------
Tabbed by: Justin Reynolds (illihexill@aol.com)
Ska/Punk/311 Bass Tab Archive -- http://members.aol.com/illihexill/index.html
[ Tab from: http://www.guitartabs.cc/tabs/f/frenzal_rhomb/home_and_away_btab.html ]
Riff 1:
====

G:-------------------------
D:-------------------------
A:-----------3-3-3-5-5--
E:-3-3-1-0---------------

Riff 2:
====

G:----------------------------------------
D:--------3-3-3--------------2-2-3-2---
A:----------------5-5-5-5-5-------------
E:-5-5-5---------------------------------
Comments