Frenzal Rhomb - Had Enough Chords & Tabs

 

Had Enough Chords & Tabs

Frenzal Rhomb Chords & Tabs

Version: 1 Type: Tab 0 ratings
1 star 2 stars 3 stars 4 stars 5 stars
comments

Had Enough Tab

#----------------------------------PLEASE NOTE--------------------------------#
#This file is the author's own work and represents their interpretation of the#
#song. You may only use this file for private study, scholarship, or research.#
#-----------------------------------------------------------------------------#
#-- File created with Instab - http://www.pconline.com/~smcarey/instab.html --#
#-----------------------------------------------------------------------------#

Author/Artist: Frenzal Rhomb
Title: Had Enough
Album: Shut Your Mouth
Transcribed by: Luke Lundberg
Email: kane_72@hotmail.com

well this is my 2nd frenzal tab this weekend, not bad i must say! u gotta detune all strings half a step.i tried to tab some of the lead but i couldn't be fucked. i got a tiny bit though. email me if u have any trouble wit it. i just warn ya now, i missed a little bit in the intro so feel free to work it out yourself haha.

------------------------------------------------------------------------------
------------------------------------------------------------------------------
------------------------------------------------------------------------------
------------------------------------------------------------------------------
--7-7-7-7-6-3-3-3-3-3-2-0-0-0---0---0---2-------------------------------------
------------------------------3---3---3---------------------------------------
 intro bit, wrk with these notes and come up wit somethin.                    

------------------------------------------------------------------------------
------------------------------------------------------------------------------
------------------------------------------------------------------------------
------------------------------------------------------------------------------
-7-7-7-7-6-3-3-3-3-3-2-0-0-0---0---0---5-7------------------------------------
-----------------------------3---3---3----------------------------------------
 after this repeat it once more then go to the chorus.                        

------------------------------------------------------------------------------
------------------------------------------------------------------------------
-5---10-----------------------------------------------------------------------
-5---10--8---5----------------------------------------------------------------
-3---8---8---5----------------------------------------------------------------
---------6---3----------------------------------------------------------------
 "i've had enough..."                                                         
[ Tab from: http://www.guitartabs.cc/tabs/f/frenzal_rhomb/had_enough_tab.html ]
------------------------------------------------------------------------------
------------------------------------------------------------------------------
-9---5------------------------------------------------------------------------
-9---5---7--------------------------------------------------------------------
-7---3---7--------------------------------------------------------------------
---------5--------------------------------------------------------------------
 rpeat intro then chorus until this part.                                     

---3-3-3-5---5-5-5-3--0-0-0---------------------------------------------------
----------------------------3-5-0-0-3-5---------------------------------------
------------------------------------------------------------------------------
------------------------------------------------------------------------------
------------------------------------------------------------------------------
------------------------------------------------------------------------------
 while that is happenin. there is a little lead part that i got.              

------------------------------------------------------------------------------
------------------------------------------------------------------------------
-5---10-----------------------------------------------------------------------
-5---10--7--------------------------------------------------------------------
-3---8---7--------------------------------------------------------------------
---------5--------------------------------------------------------------------
 aftr the lead bit this happens.                                              

------------------------------------------------------------------------------
------------------------------------------------------------------------------
-5---10-----------------------------------------------------------------------
-5---10--7--------------------------------------------------------------------
-3---8---7--------------------------------------------------------------------
---------5--------------------------------------------------------------------
 aftr that do the verse again then chorus then this bit again                 

--5--3--2---------------------------------------------------------------------
------------------------------------------------------------------------------
------------------------------------------------------------------------------
------------------------------------------------------------------------------
------------------------------------------------------------------------------
------------------------------------------------------------------------------
 little bit at the end of song                                                

Comments