Frenzal Rhomb - Do You Wanna Fight Me Chords & Tabs

 

Do You Wanna Fight Me Chords & Tabs

Frenzal Rhomb Chords & Tabs

Version: 1 Type: Tab 0 ratings
1 star 2 stars 3 stars 4 stars 5 stars
comments

Do You Wanna Fight Me Tab

   
-------------------------------------------------------------------------------
			     Do You Wanna Fight Me - Frenzal Rhomb
-------------------------------------------------------------------------------

Tabbed by: Jesse Benedick
Email: cartguysam@aol.com

Tuning:
[ Tab from: http://www.guitartabs.cc/tabs/f/frenzal_rhomb/do_you_wanna_fight_me_tab.html ]
e|-----------12-14p12----12-16p12----17p12----16p12--------------------------|
B|--------12----------12----------12-------12--------------------------------|
G|--13h14--------------------------------------------------------------------|
D|---------------------------------------------------------------------------|
A|---------------------------------------------------------------------------|
E|---------------------------------------------------------------------------|
  Guitar 1 Repeat many times
e|-17p12----16p12----17p12----14p12----19p12---------------------------------|
B|-------12-------12-------12-------12---------------------------------------|
G|---------------------------------------------------------------------------|
D|---------------------------------------------------------------------------|
A|---------------------------------------------------------------------------|
E|---------------------------------------------------------------------------|
 Tail of Riff
e|---------------------------------------------------------------------------|
B|---------------------------------------------------------------------------|
G|-9-------------------------------------------------------------------------|
D|-9-------------------------------------------------------------------------|
A|-7-let-ring--\\\\\\\\\\\\--------------------------------------------------|
E|-------------\\\\\\\\\\\\--------------------------------------------------|
 Guitar 2
e|---------------------------------------------------------------------------|
B|---------------------------------------------------------------------------|
G|--9---11---10--6---8---9---------------------------------------------------|
D|--9---12---11--7---9---9---------------------------------------------------|
A|--7---12---11--7---9---7---------------------------------------------------|
E|------10---9---5---7-------------------------------------------------------|
 Chords
e|---------------------------------------------------------------------------|
B|---------------------------------------------------------------------------|
G|--8------------------9--8--6-------8---------------9--8--3-----------------|
D|--9------------------9--9--7-------9---------------9--9--4-----------------|
A|--9------------------7--9--7-------9---------------7--9--4-----------------|
E|--7---------------------7--5-------7------------------7--2-----------------|
 Do You Wanna Fight Me               Do You Wanna Fight Me
e|---------------------------------------------------------------------------|
B|---------------------------------------------------------------------------|
G|---3-----6-----------------------------------------------------------------|
D|---4-----7-----------------------------------------------------------------|
A|---4-----7-----------------------------------------------------------------|
E|---2-----5-----------------------------------------------------------------|
 Guitar 2 Breakdown: strum each chord Repeat
e|---------------------------------------------------------------------------|
B|-------12~-----------12~-----------12~-----------12~-----------12~-------12|
G|-13h14------13-13h14------13-13h14------13-13h14------13-13h14-----13h14---|
D|---------------------------------------------------------------------------|
A|---------------------------------------------------------------------------|
E|---------------------------------------------------------------------------|
 Guitar 1 Solo
e|-----------14b15r14-----------------------------14~------------------------|
B|-12b13r12------------17p12-12-17p12-12-17p12-12-----16p12-12-16p12-12-16p12|
G|---------------------------------------------------------------------------|
D|---------------------------------------------------------------------------|
A|---------------------------------------------------------------------------|
E|---------------------------------------------------------------------------|

e|----14~--------------------------------------------------------------------|
B|-12-----14p10-10-14p10-10-14p10-10-14~-------------------------------------|
G|---------------------------------------11-9-8---9--------------------------|
D|---------------------------------------11-9-8-9-9-9-7----------------------|
A|---------------------------------------9--7-6-9-7-9-7----------------------|
E|----------------------------------------------7---7-5----------------------|

e|--------------------------------|------------------------------------------|
B|--------------------------------|------------------------------------------|
G|--9----5----6----11-9-8---9-----|--9--7--9--13--9--7--9--7--9--13--9--7--9-|
D|--9----6----6----11-9-8-9-9-9-7-|--9--7--9--13--9--7--9--7--9--13--9--7--9-|
A|--7----6----4----9--7-6-9-7-9-7-|--7--5--7--11--7--5--7--5--7--11--7--5--7-|
E|-------4----------------7---7-5-|------------------------------------------|
 Guitar 2 for solo
e|---------------------------------------------------------------------------|
B|---------------------------------------------------------------------------|
G|-7--9--13--11-13--14-14--9-------------------------------------------------|
D|-7--9--13--11-13--14-14--9-------------------------------------------------|
A|-5--7--11--9--11--12-12--7-------------------------------------------------|
E|---------------------------------------------------------------------------|

| /  slide up
| \  slide down
| h  hammer-on
| p  pull-off
| ~  vibrato
| +  harmonic
| x  Mute note

===============================================================================
Comments