Frenzal Rhomb - Cones Chords & Tabs

 

Cones Chords & Tabs

Frenzal Rhomb Chords & Tabs

Version: 1 Type: Tab 0 ratings
1 star 2 stars 3 stars 4 stars 5 stars
comments

Cones Tab

   
CONES - FRENZAL RHOMB
Tabbed by skasolo
skasolo@hotmail.com

Listen closely to get the strumming style

Verse 1 & 2: play with clean guitar
     A	  B    E    E
e|---5----7----7----7-----------------
B|---5----7----9----9-----------------
G|---6----8----9----9-----------------
D|---7----9----9----9-----------------x2
A|---7----9----7----7-----------------
E|---5----7---------------------------

     A	  B    E  D  A   
e|---5----7----7--5--5---
B|---5----7----9--7--5---
G|---6----8----9--7--6---
D|---7----9----9--7--7---
A|---7----9----7--5--7---
E|---5----7----------5---

     E    B    E    E
e|---7----7----7----7-----------------
B|---9----7----9----9-----------------
G|---9----8----9----9-----------------
D|---9----9----9----9-----------------
A|---7----9----7----7-----------------	
E|--------7---------------------------
 "Is that I could have another cone with you"

2nd verse same as first but do last bit twice

Then hit the distortion 

Little break. Hit the first 2 chords slow then the E5 really fast.
     A5   C5    E5   E5
e|---------------------------------------------
B|---------------------------------------------
G|--------------9----9-------------------------
D|---7----10----9----9-------------------------
A|---7----10----7----7-------------------------
E|---5----8------------------------------------

next lot of verses: play really fast
     A5   C5    E5   E5
e|---------------------------------------------
B|---------------------------------------------
G|--------------9----9-------------------------
D|---7----10----9----9------------------------- x2
A|---7----10----7----7-------------------------
E|---5----8------------------------------------

     A5   C5    E5D5  A5 
e|---------------------------------------------
B|---------------------------------------------
G|--------------9--7---------------------------
D|---7----10----9--7--7------------------------
A|---7----10----7--5--7------------------------
E|---5----8-----------5------------------------
[ Tab from: http://www.guitartabs.cc/tabs/f/frenzal_rhomb/cones_tab.html ]
    E5	 B5   E5   E5
e|---------------------------------------------
B|---------------------------------------------
G|--------4------------------------------------
D|---2----4----2----2-------------------------- 
A|---2----2----2----2--------------------------
E|---0---------0----0--------------------------
  "If I could have another cone with you"

solo bridge sort of thing:
     A5   C5    E5 G5  E5
e|---------------------------------------------
B|---------------------------------------------
G|--------------9--10--9-----------------------
D|---7----10----9--10--9----------------------- x2
A|---7----10----7--12--7-----------------------
E|---5----8------------------------------------

     A5   C5    E5D5  A5 
e|---------------------------------------------
B|---------------------------------------------
G|--------------9--7---------------------------
D|---7----10----9--7--7------------------------
A|---7----10----7--5--7------------------------
E|---5----8-----------5------------------------

    E5	 B5   E5   E5
e|---------------------------------------------
B|---------------------------------------------
G|--------4------------------------------------
D|---2----4----2----2-------------------------- (twice on second time)
A|---2----2----2----2--------------------------
E|---0---------0----0--------------------------

Final verse then finish by cutting loose on the high E5

Lyrics:
I can hear a car alarm in the distance
And I'm sitting in my attic all alone
And this one wish keeps on creeping inside my pointless imagination
Is that I could have another cone with you

You said you'd see much more often
But I'm staring at my carpet once again
And I know I could break down the walls and prove our communication
If I could have another cone with you
Yes, if I could have another cone with you

Well I know that it's unreasonable to want to talk it through
And I say that I don't understand but you tell me it's not true
I know that if we had a smoke we'd start anew
If I could have another cone with you

Well what you say, what you say, wanting your own space
And I know that it would be different if you'd just get off your face
I know that if we had a smoke we'd start anew
If I could have another cone with you

Well I know that it's unreasonable to want to talk it through
And I say that I don't understand but you tell me it's not true
I know that if we had a smoke we'd start anew
If I could have another cone with you
If I could have another cone with YOUUUUUUUU...


Corrections? Comments?
Comments