Frenzal Rhomb - Coming Home Chords & Tabs

 

Coming Home Chords & Tabs

Frenzal Rhomb Chords & Tabs

Version: 1 Type: Bass Tab 0 ratings
1 star 2 stars 3 stars 4 stars 5 stars
comments

Coming Home Bass Tab

          BAND :frenzal rhomb
          SONG:"coming home"
          tabbed by me the weirdo = Kimbo 
          email: frenzal_chikky@weedmail.com
          just send me a email if theres anythin u can't work out or if its wrong
          i'm sure its not wrong !
          its pretty easy i'm sure u can work it out 
          
          
          
          verse:repeat the first bass line 2 times b4 goin onto the next part of the verse
          g/------------------------------------------------------------/-----
          d/------------------------------------------------------------/-(x2)!!!
          a/-7-7-77--6-6-66--------4-4-44---------0-0-00--------2-2-22--/---
          e/----------------4-4-44--------2-2-22---------0-0-00---------/------ 
          
          2nd part verse: when last verse comes in u only play this part of the verse
          g/-------------------------------/-------------------------
          d/-------------------------------/-------------------------
          a/-4-4-44--0-0-00--------2-2-22--/-4-4-44--0-0-00------2--0- 
          e/----------------2-2-22---------/----------------2--2------ 
          
          chorus: /12\ slide up to 12 and slide back down very fast
          g/------------------------------------------------
          d/----------------------------------------------
          a/------22-2-------44-4------33-3------------------- 
          e/-0-0--------4-4-------2-2--------00000-/12\-------  
          
          bridge:
          g/-------------------------------/----/-------
          d/-------------------------------/----/--------
          a/-44-44--00-00------------------/-x4-/---------
          e/--------------00-00--44-44-----/----/----------
          
          verse: both parts
          chorus:
          verse: both parts
          chorus:
          bridge:
          ok for the last part u only do the second half of the verse
          then chorus (repeat it until its finished)
[ Tab from: http://www.guitartabs.cc/tabs/f/frenzal_rhomb/coming_home_btab.html ]
Comments