Frenzal Rhomb - Chemotherapy Chords & Tabs

 

Chemotherapy Chords & Tabs

Frenzal Rhomb Chords & Tabs

Version: 1 Type: Bass Tab 0 ratings
1 star 2 stars 3 stars 4 stars 5 stars
comments

Chemotherapy Bass Tab

Artist - Frenzal Rhomb
Song - Chemotherapy
Album - Dick Sandwich

Bass intro
----------------------------------------------------------------------
----------------------------------------------------------------------
----------4-4---------------------------------------------------------
--5-5-5-7-----7-5-2-2-2-2-2-0-0-0-0-0-0-0-0-4-5-5-5-5-5-5-4-4-4-4-4-4-

Intro cont.
------------------------
------------------------
------------------------
2-2-2-2-2-2-0-0-0-0-0-0-

Verse
G----------------------------------
D----------------------------------
A----------4-4-4-4---------5-5-5-5-
E--5-5-5-5---------2-2-2-2---------

"...insane, yeah, insane..."
G----------------------------
D----------------------------
A----------4-4-4-4-----------
E--5-5-5-5---------2-2-2-2-3-
[ Tab from: http://www.guitartabs.cc/tabs/f/frenzal_rhomb/chemotherapy_btab.html ]
Chorus
G------------------------------
D------------------------------
A--5-5-5-------7-7-7-7-7-7-7-7-
E--------5-5-5-----------------

Bridge
G-------------------------
D-------------------------
A-------------------------
E--2-2-2--2-2-2--2-2-2-2-2

Solo
G---------------------------------------------
D--9-7-7-11-12-9-7-7-11-12-9-7-7-9--9-9-11-9--
A---------------------------------------------
E---------------------------------------------

G------------------------------------------
D--9-7-7-11-12-9-7-7-11-12-9-7-7-9--9-9-9--
A------------------------------------------
E------------------------------------------

Last Verse
G----------------------------------
D----------------------------------
A----------4-4-4-4-----------------
E--5-5-5-5---------2-2-2-2-3-3-3-3-


The other tabs were from the live version of Chemotherapy. These are the 
proper ones.

Comments