Frenzal Rhomb - Bucket Bong Chords & Tabs

 

Bucket Bong Chords & Tabs

Frenzal Rhomb Chords & Tabs

Version: 1 Type: Bass Tab 0 ratings
1 star 2 stars 3 stars 4 stars 5 stars
comments

Bucket Bong Bass Tab

Frenzal Rhomb – Bucket Bong Bass Tab
Bassist- Tom Crease

Intro
G------------------------------------------------------|
D------------------------------------------------------|
A-22---------------------------------------------------|
E---------------------------------------------22-------|
           The band has stopped the night is young
           This bar is closed but therell be more to come
G---------------------------------------------------------|
D---------------------------------------------------------|
A 22------------------------------------------------------|
E------------------------44----------------00---------22--|
           She whispers softly “I don’t wanna be alone…
(now let the notes ring)
G----------------------------------------------------------------|
D----------------------------------------------------------------|
A  2~----------------------------------------------4~---2~-------|
E -------------------4~----------------------0~------------------|
         Can me and all my friends come back for cones”

Verse 1
G--------------------------------------------------------|
D--------------------------------------------------------|
A---------------------------------2222222222222222-------|
E -22----------------------------------------------------|
          I called ahead I felt so cheap
G------------------------------------------------------------------|
D------------------------------------------------------------------|
A-----------------------------------------222222222222222222222222-|
E-222222222222222222222222222--------------------------------------|
        Just to make sure my grandmas sound asleep
            (start playing the 2 on the a string when he says sound asleep)
G--------------------------------------------------------|
D--------------------------------------------------------|
A 22222222-----------------------------------------------|
E---------44444444-00000000--2---------------------------|
       I Shouldve noticed that her look was kinda smug
G-------------------------------------------------------|
D-------------------------------------------------------|
A-22222222---------------4-2----------------------------|
E----------44444444-0-----------------------------------|
She only wants me cause ive got the drugs

Verse 2        fuckin hard timing here
G-----------------------------------------------------------------|
D-----------------------------------------------------------------|
A----------------------------------------------2222222222222222---|
E 22----------22--------22----------------------------------------|
   My Mouth   was dry   my knees were weak
G-------------------------------------------------|
D-------------------------------------------------|
A-----------------2222222222222222----------------|
E-2222222222222222--------------------------------|
She Held my hand as we walked down the street
(*make sure you start playing the 2 on the a string when he says “street”)
[ Tab from: http://www.guitartabs.cc/tabs/f/frenzal_rhomb/bucket_bong_btab.html ]
G--------------------------------------------------------|
D--------------------------------------------------------|
A-22222222-----------------------------------------------|
E---------44444444-00000000--2---------------------------|
       I didn’t give a shit she got my first name wrong
G-------------------------------------------------------|
D-------------------------------------------------------|
A-22222222---------------4-2----------------------------|
E ----------44444444-0----------------------------------|
She only wants me for my bucket bong
G-------------------------------------------------------|
D-------------------------------------------------------|
A-22222222---------------4-2----------------------------|
E----------44444444-0-----------------------------------|
She only wants me for my bucket bong

SOLO
G------------------------------------------------------------------------------|
D------------------------------------------------------------------------------|
A-2222222222222222----------2222222222222222-----------------------------------|
E----------------2222222222222222----------2222222222222222--------------------|

G------------------------------------------------------------------------------|
D------------------------------------------------------------------------------|
A-22222222---------------------------------------------------------------------|
E---------222222224444444400000000---------------------------------------------|

G----------------------------------------------------------------------------|
D----------------------------------------------------------------------------|
A-22222222-------------------------------------------------------------------|
E---------2222222244440000---------------------------------------------------|

Verse 3
G---------------------------------------------------------------------------------|
D---------------------------------------------------------------------------------|
A-----------------------6666666666666666-----------------------77777777777777777--|
E0000000000000000-----------------------4444444444444444--------------------------|
Now where at home im feeling scared, cause theres no bucket, sink or vessel anywhere
G-----------------------------------------------------------|
D-----------------------------------------------------------|
A-2 222222--------------------------------------------------|(let the 3 ring)
E-----------2-222222-0-000000-3~----------------------------|
Now if she wants a bucket, ill have the last laugh
G------------------------------------------------|
D------------------------------------------------|
A-22222222-----------4-2-------------------------|
E---------44444444-0-----------------------------|
She’ll have to have it with me in the bath
G------------------------------------------------|
D------------------------------------------------|
A-22222222-----------4-2-------------------------|
E----------44444444-0----------------------------|
She’ll have to have it with me in the bath

(Slowing down a lot now)
G-------------------------------------------------------|
D-------------------------------------------------------|
A-22222222-------------4~-2~----------------------------|
E----------44444444-0~----------------------------------|
She only wants me cause ive got the drugs
(*let last three notes ring)

i reckon this tab is fuckin perfect. i dont even play bass, i tabbed it out for the guy 
playing bass for my band. any problems, then email me
punk_in_drublic911@hotmail.com
Comments