Frente - Let The Sun Shine In Chords & Tabs

 

Let The Sun Shine In Chords & Tabs

Frente Chords & Tabs

Version: 1 Type: Tab 0 ratings
1 star 2 stars 3 stars 4 stars 5 stars
comments

Let The Sun Shine In Tab

   
Let The Sun Shine In
====================
Performed By Frente


 I didn't hear bass sounds in intro, but I think sounds better if we pick snare 
 5 and 6 as a bass.

Intro :

E |-------------0---|-----0---2---0---|-------------0---|-----0---2---0---|
B |---------------0-|-------0---0---0-|---------------0-|-------0---0---0-|
G |-1-----1-2-------|-1---------------|-1-----1-2-------|-1---------------|
D |---2-------2-----|---2-------------|---2-------2-----|---2-------------|
A |-----2---0-------|---------2-------|-----2---0-------|---------2-------|
E |-0---------------|-0---------------|-0---------------|-0---------------|


    E               Asus            E
E |-----0---------------0---------|-----0---------------0---------|
B |---------0---------------0-----|---------0---------------0-----|
G |-------------1---------------2-|-------------1---------------1-|
D |-------------------------------|-------------------------------|
A |-----------------0-------------|-------------------------------|
E |-0-----------------------------|-0---------------0-------------|
    Mommy  told me something    a  little kid should know      it's

    B                               E       A       E
E |-----2---------------2---------|-----0-------0-----------------|
B |---------4---------------4-----|---------2-------0-------------|
G |-------------4---------------4-|-1-------2-------1-------------|
D |-------------------------------|-2-------2-------2-------------|
A |-2---------------2-------------|-2-------0-------2-------------|
E |-------------------------------|-0---------------0-------------|
    all  about the devil   and I learned to hate him so

    E              Asus             E
She said he causes trouble when you let him in your room 

      B                            E        A           E
he'll never ever leave you if your heart is filled with gloom 


    Chorus:

               A             E
    So let the sun shine in, face it with a grin

    B                      E        A     E
    Smilers never lose and frowners never win

               A             E
    So let the sun shine in, face it with a grin

    B                              E   A     E
    Open up your heart and let the sun shine in


E              Asus       E
When you are unhappy, the devil wears a grin

    B                               E           A        E
But oh he starts to run in when the light comes prowling in
[ Tab from: http://www.guitartabs.cc/tabs/f/frente/let_the_sun_shine_in_tab.html ]
  E               Asus             E
I know he'll be unhappy cause I'll never wear a frown

      B                               E        A       E
Maybe if we keep on smiling he'll get tired of hanging 'round

   E           Asus               E
If I forget to say my prayers the devil jumps with glee

       B                            E       A     E
But he feels so awful awful when he sees me on my knees

   E              Asus            E
So if you feel of trouble and you never seem to move

     B                              E   A     E
Just open up your heart and let the sun shine in


    (Chorus)

    A        E          B       E A E
    Suuun... shiiine... iiin...

    A        E          B       E A E
    Suuun... shiiine... iiin...


Fill :

E |-----------------|-----------------|
B |-----------------|-----------------|
G |-----------------|-2-1-------------|
D |-----------------|-------4---2-----|
A |-----------------|-------------2---|
E |-----------------|-0---------------|


Mommy told me someting a little kid should know
It's all about the devil and i learned to hate him so
If I forget to say my prayers the devil jumps with glee
But he feels so awful awful when he sees me on my knees
So if you feel of trouble and you never seem to move
Just open up your heart and let the sun shine in


    (Chorus)

               A             E
    So let the sun shine in, face it with a grin
              (Suuun...      shiiine...        )

    B                      E        A     E
    Smilers never lose and frowners never win
   (iiin...              )

               A             E
    So let the sun shine in, face it with a grin
              (Suuun...      shiiine...        )

    B                              E      B        A
    Open up your heart and let the sun... shine... in
   (iiin...                      )


E |-------------0---|-----0---2---0---|-------------0---|-----------------|
B |---------------0-|-------0---0---0-|---------------0-|-----------------|
G |-1-----1-2-------|-1---------------|-1-----1-2-------|-1---------------|
D |---2-------2-----|---2-------------|---2-------2-----|-----------------|
A |-----2---0-------|---------2-------|-----2---0-------|-----------------|
E |-0---------------|-0---------------|-0---------------|-0---------------|


===========================================================================
 That's all... Enjoy it...
 please send me lyric or chord corrections at angsagd@yahoo.com

Comments