Freestyle - So Slow Chords & Tabs

 

So Slow Chords & Tabs

Freestyle Chords & Tabs

Version: 7 Type: Tab 0 ratings
1 star 2 stars 3 stars 4 stars 5 stars
comments

So Slow Tab

   
****************************************************************************
wazup mga noypis!!!                                                        *
si michael L. to ng cali.mzta na ang pinas...                              *
syet nkakamis...binabatete ko nga pla mga fren ko d2 sa cali at sa pinas.  * 
peace out dogs...!!hahaha first tym ko gumawa ng tabs kaya pag tiyagaan nyo*
nlng...MARAMING SOLOMON PO!!!just kidding ....ahihihi!!                    *
****************************************************************************


INTRO:  B-F#/C#-E-F#/C# (3X)
        B-F#/C#-E-
                                                    
E|-------2----tap-------2---tap------2-----tap-------------------|
B|---4---------------2------------0-----------------2----------2-|
G|---4---------------3------------1-----------------3-----4------|
D|---------------------------------------------------------------|
A|---2---------------4------------------------------4------------|
E|--------------------------------0------------------------------|
               
E|-------2----tap-------2---tap------2-----tap---------------------|
B|---4---------------2------------0-----------------2--------------|
G|---4---------------3------------1-----------------3-------3h4--3-|
D|-----------------------------------------------------------------|
A|---2---------------4------------------------------4--------------|
E|--------------------------------0--------------------------------|

E|-------2----tap-------2---tap------2-----tap--------------------|
B|---4---------------2------------0-----------------2----------2--|
G|---4---------------3------------1-----------------3-----4-------|
D|----------------------------------------------------------------|
A|---2---------------4------------------------------4-------------|
E|--------------------------------0-------------------------------|

E|------2----tap-----2----tap---------0----------------------tap--|
B|---4-----------2--------------------0--------------- (7) -------|
G|---4-----------3--------------------1---------------------------|
D|------------------------------------2---------- (7) ------------|
A|---2-----------4--------------------2------ (7) ----------------|
E|------------------------------------0---------------------------|


VERSE 1:  


  I need    a       love that   grows....                 I don't 
E|-------2----tap-------2---tap------2-----tap---------------------|
B|---4---------------2------------0-----------------2----------2---|
G|---4---------------3------------1-----------------3-----4--------|
D|-----------------------------------------------------------------|
A|---2---------------4------------------------------4--------------|
E|--------------------------------0--------------------------------|
    want it         unless   i   know...                   with each
E|-------2----tap-------2---tap------2-----tap-------------------2-|
B|---4---------------2------------0-----------------2----------2---|
G|---4---------------3------------1-----------------3--------------|
D|-----------------------------------------------------------------|
A|---2---------------4------------------------------4--------------|
E|--------------------------------0--------------------------------|
    passing ...
E|--4--x--2----------------------------------------------------------|
B|--2--x--2-------2--------------------------------------------------|
G|--4--x--4---4-------4---------4-x--4--------------------------4----|
D|-----x--------------4---------4-x--4--------------4-------4------4-|
A|--2--x--2---2---------------------------------4h6------------------|
E|--------------------4----4---------4--4-------------4---------4----|

E|------------------------------------------------------------------|
B|------------------------------------------4h5---4-----------------|
G|------4-----4-x-------4-------4-----------4------------6--4-------|
D|------4-----4-x-------4------------6------6-----------------------|
A|------------------------------------------------------------------|
E|------4------------4-------4-----------4--------------------------|

VERSE 2:

E|-------2----tap-------2---tap------2-----tap---------------------|
B|---4---------------2------------0-----------------2----------2---|
G|---4---------------3------------1-----------------3-----4--------|
D|-----------------------------------------------------------------|
A|---2---------------4------------------------------4--------------|
E|--------------------------------0--------------------------------|

E|-------2----tap-------2---tap------2-----tap-------------------2-|
B|---4---------------2------------0-----------------2----------2---|
G|---4---------------3------------1-----------------3--------------|
D|-----------------------------------------------------------------|
A|---2---------------4------------------------------4--------------|
E|--------------------------------0--------------------------------|

E|----4--4-x----2-------------------------------------------------|
B|----2--2-x----2--2/4--2-----------------------------------------|
G|----4--4-x----4--2/4--2----4------4-x---4------4---4----4-x-----|
D|---------------------------4------4-x---4------4---4----4-x-----|
A|----2--2-x----2-------------------------------------------------|
E|---------------------------4---4--4-x---4---4--4---4----4-x-----|

E|---------------------------------------------2--------------|
B|-------------------4---4---------4---4---4---2-----2--------|
G|-------------------4---4---------4---4---4---4-------4------|
D|----4--------------4---4---------4---4---4---4--------------|
A|----------------4------4---------4---4---4---2---2----------|
E|---------4s3------------------------------------------------|


CHORUS 1:
E|------------2-------------2-x----------------|
B|-----0------0-------------2-x--4-----2-------|
G|-------3------------------3-x--4-----4-------|
D|---------4---------------------4--4-----4----|
A|----------------4-2------------2-----2-------|
E|---0--------0-------4-2---2-x----------------|

E|------------2-------------2-x-----------------|
B|-----0------0-------------2-x----4------------|
G|-------3------------------3-x----4------------|
D|---------4-----------------------4------------|
A|----------------4-2------------2----2-4-0-----|
E|---0--------0-------4-2---2-x-------------4---|

E|------------2-----------2-x---------2----2----2-----|
B|-----0------0-----------2-x------2--2h4--2----2-----|
G|-------3----------------3-x----4----4----4----3-----|
D|---------4------------------------------------------|
A|---------------2-4-----------2------2---------4-----|
E|--0---------0------4-2--2-x-------------------------|

E|-----2-x-----------------------------2----------|
B|--2--2-x-----------------------------0----------|
G|--4--4-x---------------4---------4--------------|
D|--4------------------4-4-------4----------------|
A|--2--2-x-----------4-----4---4------------------|
E|------------2-3-4-------------------------------|


VERSE 3:

E|-------2----tap-------2---tap------2-----tap---------------------|
B|---4---------------2------------0-----------------2----------2---|
G|---4---------------3------------1-----------------3-----4--------|
D|-----------------------------------------------------------------|
A|---2---------------4------------------------------4--------------|
E|--------------------------------0--------------------------------|

E|-------2----tap-------2---tap------2-----tap-------------------2-|
B|---4---------------2------------0-----------------2----------2---|
G|---4---------------3------------1-----------------3--------------|
D|-----------------------------------------------------------------|
A|---2---------------4------------------------------4--------------|
E|--------------------------------0--------------------------------|

E|--4--4-x--2---2----4----------------------------------------------2---|
B|--2--2-x--2---2h42-2--------2-------------------------------------0---|
G|--4--4-x--4---4----4----4---4---4-----4--------4--------4-------4-----|
D|------------------------4---4---4-----4------4-4------4-4-----4-------|
A|--2--2-x--2---2----2----------------------------------------4---------|
E|------------------------4-------4--4--4----4---4-4--3---3-3-----------|

Verse 4:

E|-------2----tap-------2---tap------2-----tap---------------------|
B|---4---------------2------------0-----------------2----------2---|
G|---4---------------3------------1-----------------3-----4--------|
D|-----------------------------------------------------------------|
A|---2---------------4------------------------------4--------------|
E|--------------------------------0--------------------------------|
[ Tab from: http://www.guitartabs.cc/tabs/f/freestyle/so_slow_tab_ver_7.html ]
E|-------2----tap-------2---tap------2-----tap-------------------2-|
B|---4---------------2------------0-----------------2----------2---|
G|---4---------------3------------1-----------------3--------------|
D|-----------------------------------------------------------------|
A|---2---------------4------------------------------4--------------|
E|--------------------------------0--------------------------------|


E|--4---4-x---4-2-------------------------------------|
B|--2---2-x---2-2----2/4-2----------------------------|
G|--4---4-x---4-4----2/4-2--4---4-x-4-----4----4-4-x--|
D|-----------------4--------4---4-x-4-----4----4-4-x--|
A|--2---2-x---2-2-------------------------------------|
E|--------------------------4---4-x-4---4-4----4-4-x--|


E|--------------------------2h4-------2--------------|
B|-----------------4-x-4----2---------0------0-------|
G|-----------------4-x-4----4-----1---1------1-------|
D|---4-------------4-x-4----------2---2--1------1----|
A|--------------4----x-4----2-----2---2------2-------|
E|------2-3-4----------------------------------------|

CHORUS 2:

E|-------------2-------------2-x------------------|
B|-----0-------0-------------2-x----4-------4-----|
G|-------3-------------------3-x----4-------4-----|
D|----------4----------------4-x----4-------4-----|
A|-----------------4-2--------------2--2----------|
E|--0----------0--------4-2--2--------------------|

E|-----------------2---------------------2-x-------------------------|
B|--------0--------0---------------------2-x-----4-------------------|
G|----------3----------------------------3-x-----4-------------------|
D|-------------4-------------------------4-x-----4-------------------|
A|-------------------------4-2----------------2--------4-2---0-------|
E|-0---------------0--------------4-2----2------------------------4--|


E|--------------2---------------2-x---------------------|
B|------0-------0---------------2-x--4----x-2----x-2----|
G|--------3---------------------3-x--4----x-3----x-4----|
D|-----------4------------------4-x--4----x-4----x-4----|
A|-------------------4-2-------------2----x-4----x-2----|
E|---0----------0---------4-2---2-----------------------|

E|--------------------------------2--------------|
B|----------------x-4-----x-4-----0--------------|
G|----------------x-4-----x-4-----1--------------|
D|----------------x-4-----x-4-----2--------------|
A|------------4-----------x-4-----2--------------|
E|--2-3-4-------------------------0--------------|

BRIDGE
E|------------2----------------------------------|
B|-----0------0------------2-x----4--------4-----|
G|-------3------3---3------3-x----4--------4-----|
D|---------4-------4-------4-x----4--------4-----|
A|--------------------------------2---2----4-----|
E|--0---------0------------2-x-------------------|

E|-------------2---------------------------------|
B|-----0-------0------------2--x----4---------4--|
G|-------3-------3----3-----3--x----4---------4--|
D|----------4-------4-------4--x----4---------4--|
A|----------------------------------2-----2------|
E|--0----------0------------2--x-----------------|

E|--------------2----------------------------------|
B|------0-------0------------2-x---4--x-2-----x-2--|
G|--------3-------3----3-----3-x---4--x-3-----x-4--|
D|----------4--------4-------4-x---4--x-4-----x-4--|
A|---------------------------------2--x-4-----x-2--|
E|---0----------0------------2-x-------------------|

E|------------------------------0------------------|
B|-------------4-------------2--------4------------|
G|-------------4----------4-----------4------------|
D|---------4-----4------4-------------4------------|
A|------4-------------4---------------6------------|
E|--4----------------------------------------------|

ADLIB:

GUITAR 1:
E|-----------------------------------------------------------------|
B|-----------------------------------------------------------------|
G|---4----4-4------3---3------1------1---1---3---------------------|
D|---4----4-4------4---4------1------1---1---4---------------------|
A|-----------------------------------------------------------------|
E|---0----0-0------0---0------0------0---0---0-----0-0-----0----0--|

E|-----------------------------------------------------------------|
B|---------------------2-2-----------------------------------------|
G|--4----4-4-----3-----3-3----1-----1---1---3----------------------|
D|--4----4-4-----4-----4-4----1-----1---1---4----------------------|
A|-----------------------------------------------------------------|
E|--0----0-0-----0-----0-0----0-----0---0---0-----0-0------0----0--|

E|---------2--------------------------------------------------------|
B|---------2------------2-------------------------------------------|
G|---4----------3---3-3-3-------1------1---1---3--------------------|
D|---4----------4---4-4---------1------1---1---4--------------------|
A|------------------------------------------------------------------|
E|---0----------0---0-0-0-------0------0---0---0-----0-0------0----0|

E|-----------------------------------------------------------------|
B|-----------------------------------------------------------------|
G|---4----4-4------3---3------1------1---1---3---------------------|
D|---4----4-4------4---4------1------1---1---4---------------------|
A|-----------------------------------------------------------------|
E|---0----0-0------0---0------0------0---0---0-----0-0-----0----0--|

GUITAR 2: Last part of adlib only together with guitar 1


E|-----------------------------------9---11--12--14--15--17------|
B|--------------------7--9--11--12---10--11--12--14--15--17------|
G|--1--3--4--6--8--9--8--9--11--12-------------------------------|
D|--1--4--4--6--8--9---------------------------------------------|
A|---------------------------------------------------------------|
E|---------------------------------------------------------------|

Chorus 3:

GUITAR 1:

E|-----------------2-----------2---2-x----------------------|
B|------0----------0-----------2---2-x------4----------4----|
G|---------3-----------3-------3---3-x------4----------4----|
D|-------------4---------4-----4---4-x------4----------4----|
A|------------------------------------------2----2----------|
E|--0--------------0-----------2---2-x----------------------|

E|------------------2----------------2-x--------------------|
B|-------0----------0----------------2-x----4---------------|
G|----------3------------------------3-x----4---------------|
D|--------------4--------------------4-x----4---------------|
A|-----------------------4-2----------------2-----4-2-0-----|
E|----0-------------0---------4-2----2-------------------4--|

E|--------------2----2-x-----------------------|
B|------0-------0----2-x--4----x-2----x-2------|
G|--------3----------3-x--4----x-3----x-4------|
D|-----------4-------4-x--4----x-4----x-4------|
A|------------------------2----x-4----x-2------|
E|---0---------------2-x-----------------------|

E|-----------------------------0--------0-------|
B|------------------------4----0------0---0-----|
G|------------------------4----4----4-------4---|
D|---------------------4-------4--4-----------4-|
A|---------------4-------------4----------------|
E|----2-3-4--------------------2----------------|

Chorus:
E|------------2--------------2-x-------------------|
B|-----0------0------------2-2-x----4--------------|
G|-------3------3----3-----3-3-x----4--------------|
D|---------4-------4-------4---x----4----------4---|
A|----------------------------------2------2/4-----|
E|--0---------0------------2-2-x-------------------|

E|------------2--------------2-x----------------------|
B|-----0------0------------2-2-x----4----x-2----x-2---|
G|-------3------3----3-----3-3-x----4----x-3----x-3---|
D|---------4-------4-------4---x----4----x-4----x-4---|
A|----------------------------------2----x-4----x-2---|
E|--0---------0------------2-2-x----------------------|

E|---------------------------------0----------------|
B|----------------------4------2h4-----------0------|
G|----------------------4------4-----------3--------|
D|------------------4--------------------4----------|
A|---------------4----------4-----------------------|
E|-----2-3-4---------------------------0------------|

OUTRO:  B-F#/C#-E-F#/C# (3X)
        B-F#/C#-E-

Guitar 1: Do INTRO
Guitar 2: wlang guitar 2...hahahaha hndi ko na alam un...

****************************************************************************
yan lng mga pipz....pag tiyagaan nyo nlng ha bago pako sa pag gwa ng tabs e*
pero pwede na...ahihihihi!!broken heart ako kaya ko ito ginawa...i rate nyo*
nlng kung okey sa inyo ung 2g2g....salamat pow...!!JUVY PASCUA             *
SUPNET....MGALIT KA MAN SAKIN PERO MAHAL TLAGA KTA YAN LNG MASASABI KO..   *
ingat guys and peace out                                                   *
homies!                                                                        
Comments