Freestyle - So Slow Chords & Tabs

 

So Slow Chords & Tabs

Freestyle Chords & Tabs

Version: 6 Type: Tab 0 ratings
1 star 2 stars 3 stars 4 stars 5 stars
comments

So Slow Tab

   
Date Created: Nov 28, 2002
Guitar Transciption of
So Slow by Freestyle
from the album Freestlye
Transcribed by: fatmustard
For Questions/Comments: fatmustard@yahoo.com

       * means tap your guitar.

Intro and Chorus Chords:
  CII                         F         Em        Am7
e-------*-------3-*-----3-------1-*-------0-*-------1-*-----1---|-|
B-5-5-3-*---3-3-3-*---3---3---1-1-*---1-0-0-*---0-1-1-*---1---1-|0|
G-5-5-5-*---5-3---*-----------2---*---2-0---*---------*---------|-|<----Repeat sign
D-------*---5-5---*---5--------- -*---3-----*---2-----*---2-----|-|
A-3-3-3-*-3-------*-3---3-3-0-3---*-3---2---*-2---0---*-0---0-0-|0|
E-------*---------*---------------*---------*---------*---------|-|

Verse Chords:
  C         Am7        FM7       Em          Am7               FM7       Em
        I've been with you boy....
e---0-*-------0-*--------0-*-------0-*-------0-*-------0-*-------0-*-------0-*-|-|
B-1-1-*---1-1-1-*----1-1-1-*---1-0-0-*-------1-*---1-1-1-*---1-1-1-*---1-0-0-*-|0|
G-0---*---------*----------*---------*---------*---------*---------*---------*-|-|
D-----*---2-----*----2-3---*---3-----*---------*---2-----*---2-3---*---3-----*-|-|
A-3---*-3---0---*--0-------*-0---2---*-----0---*-0---0---*-0-------*-0---2---*-|0|
E-----*---------*----------*---------*-0-3-----*---------*---------*---------*-|-|
[ Tab from: http://www.guitartabs.cc/tabs/f/freestyle/so_slow_tab_ver_6.html ]
Refrain:
  Em  FM7               Em                  Dm7                 G7                G7
      But baby it's wrong......
e-------0-*-----0-*-------0-*-------0-*-------5-*-------5-*-------3-*---------|-|--------|
B---0-1-1-*---1-1-*---1-0-0-*---0-0-0-*---0-6-6-*---6-6-6-*---6-3-3-*---3-3-3-|0|--3-3-3-|
G---------*-------*---------*---------*-----5---*---------*-----4---*-----4-4-|-|--4-4-4-|
D---2-3---*---3---*---3-----*---2-2---*---2-----*---7-----*---7-----*---3-----|-|--------|
A-2-------*-0-----*-0---2---*-2-------*-2---5---*-5---5---*-5---5---*-5---5-5-|0|--5-5-5-|
E---------*-------*---------*---------*---------*---------*---------*---------|-|--------|

Bridge:
         Dm7                Em7                 Dm7  Em7  Dm7  Em7
             I know tommorow...              3x   (strumm)
e--------5-*-------5-*--------7-*-------7-*-|-|--------------------|
B--------6-*---6-6-6-*----6-8-8-*---8-8-8-*-|0|-6666-8888-6666-----|
G----------*---5-5---*----5-7---*---7-7---*-|-|-5555-7777-5555-----|
D----------*---------*----------*---------*-|-|-7777-9999-7777-9s0-|
A-0--3s5---*-5---5---*--5---7---*-7---7---*-|0|-5555-7777-5555-7s0-|
E----------*---------*----------*---------*-|-|--------------------|

Lyrics:
I've been with you boy
Three years is quite awhile
But getting too sensual
Is really not my style

You know I love you
And I like it just like this
But sometimes I feel like
Giving you more than just a kiss

REFRAIN:
But baby it's wrong
Baby it's not my kind of game
If I give it to you now
Our love will never be the same

It won't be long
We gotta play our love just right
I know you know the time will come
But baby for tonight

CHORUS:
Let's take it slow (so slow)
Anywhere you wanna go
Baby for you I'll lay it all on the line

You ougtha know (oughta know)
Boy I ain't got nowhere to go
I'll give it to you, only to you
We gotta take it real slow

When we get together
You know I feel the fire
It burns up inside me, oh
The natural desire

I know that you feel it too
I know you wanna flow
Keep dreaming about it and
The fire starts to grow

[Refrain]
[Chorus]

BRIDGE:
I know tomorrow
It will still be you and me
I'm saving it all for you
Especially

Trust in me baby
When I say this to you
If we wait a little longer
Our love will be forever true

[Chorus 2x]
Comments