Freemason - Boredom Chords & Tabs

 

Boredom Chords & Tabs

Freemason Chords & Tabs

Version: 1 Type: Tab 0 ratings
1 star 2 stars 3 stars 4 stars 5 stars
comments

Boredom Tab

Band: Freemason
Song: Boredom
Tuning: Tune E string down one half step and leave everything else in Standard
p:pulloff
/ :bend-up
h: hammer on

play the entire thing with chorus
Intro:
--------------|---------------------------------------------------------------------------------
--------------|---------------------------------------------------------------------------------
--------------|---------------------------------------------------------------------------------
--------------|---------------------------------------------------------------------------------
--------------|---------------------------------------------------------------------------------
-5-5---3-3--|---0--0-3-0---0--0-3-0---0--0-3-0-----2-2--3-p-2-----0--0-3-0---0--

                                                    Heavy Distortion    
---------------------------------------|---------------------------------------------------------
---------------------------------------|---------------------------------------------------------
------------------------------------x2|---------------------------------------------------------
---------------------------------------|---------------------------------------------------------
---------------------------------------|--1--1----1---1--1---1---1--1----1----3-3--4-3---
0-3-0---0--0-3-0------/5555------|--0--0-3-0---0--0-3-0---0--0-3-0----2-2--3-2---

-------------------------------------------------------------------------------------------------
-------------------------------------------------------------------------------------------------
-------------------------------------------------------------------------------------------------
-------------------------------------------------------------------------------------------------
-1--1---1---1--1----1---1--1----1-----/6-6-6-6--------------------------------------------
-0--0-3-0---0--0-3-0---0--0-3-0-----/5-5-5-5--------------------------------------------

verse: (Heavy Palm Mute with no Distortion)
-------------------------------------------------------------------------------------------------
-------------------------------------------------------------------------------------------------
-------------------------------------------------------------------------------------------------
--------------------------------------------------------------------------------------------------
-------------------------------------------------------------------------------------------------
-0--0-3-0---0--0-3-0---0--0-3-0---5-5-5-5---0--0-3-0---0--0-3-0---0--0-3-0---1-1
[ Tab from: http://www.guitartabs.cc/tabs/f/freemason/boredom_tab.html ]
-------------------------------------------------------------------------------------------------
-------------------------------------------------------------------------------------------------
---------------------------------------------------------------------------------------------
---------------------------------------------------------------------------------------------------
------------------------------------------------------------------------------------------------
-1-1---0--0-3-0---0--0-3-0---0--0-3-0---3-3-3-3---0--0-3-0---0--0-3-0---0--0-3-0
(distortion)
-------------------------------------------------------------------------------------------------
-------------------------------------------------------------------------------------------------
-------------------------------------------------------------------------------------------------
------------------------------------------------------------------------------------------------
--4-4-4-4-------------------------------------------------------------------------------------
--3-3-3-3-------------------------------------------------------------------------------------

Chorus:Heavy distortion
-----------------------------------------------------------------------------------------------
-------------------------------------------------------------------------------------------------
-----------------------------------------------------------------------------------------------
-------------------------------------------------------------------------------------------------
1--1---------1--1--------1--1---------2-2-2-2---1--1---------1--1---------1--1--------6--
0--0-3p0---0--0-3p0---0--0-3p0---1-1-1-1---0--0-3p0---0--0-3p0---0--0-3p0---5

-------------------------------------------------------------------------------------------------
------------------------------------------------------------------------------------------------
------------------------------------------------------------------------------------------------
--------------------------------------------------------------------------------------------------
-6-6-6---1--1---------1--1--------1--1---------4-4-4-4---1--1---------1--1---------1--
-5-5-5---0--0-3p0---0--0-3p0---0--0-3p0---3-3-3-3---0--0-3p0---0--0-3p0---0--

-------------------------------------------------------------------------------------------------
-------------------------------------------------------------------------------------------------
-------------------------------------------------------------------------------------------------
-----------------------x2-----------------------------------------------------------------------
1--------3-3-//3-----------------------------------------------------------------------------
0-3p0----------------------------------------------------------------------------------------

after you've played the chorus the second time through play this riff instead of "c"
---------------------------------------------------
---------------------------------------------------
---------------------------------------------------
---------------------------------------------------
-3-p-1--------------------------------------------
----------h-3---1---------------------------------

during drum solo:(distortion / light palm mute)
-------------------------------------------------------------
-------------------------------------------------------------
-------------------------------------------------------------just play that as many times
-------------------------------------------------------------as you need to
-1-p-0--1-p-0--1-p-0--------------------------------------
-0-------0--------0----------------------------------------------
thats it. I know its not the hardest song but it's fun to play. Keep checking us out cause we'll have more tabs soon.
Order:
Intro
Verse
Chorus
Verse
(Drum Solo)
Intro
Chorus
Comments