Freefaller - Do This Do That Chords & Tabs

 

Do This Do That Chords & Tabs

Freefaller Chords & Tabs

Version: 1 Type: Bass Tab 0 ratings
1 star 2 stars 3 stars 4 stars 5 stars
comments

Do This Do That Bass Tab

----------------------------------------------------------------------------
			Do This! Do That! - Freefaller
----------------------------------------------------------------------------

Tabbed By : Stryker
e-mail: Stryker182@hotmail.co.uk

Tuning : Standard (EADG)

\=Slide Down The Neck (High To Low)
/=Slide Up The Neck (Low To High)
h=Hammer on
p=Pull off
~=Let Note Ring

INTRO
G|----------------------------------------------------------------------|
D|----------------------------------------------------------------------|
A|-15-15-15-15-15-15-14-14-15-15-15-15-15-15-15\3-----------------------|
E|----------------------------------------------------------------------|

INTRO (PART TWO)
G|----------------------------------------------------------------------|
D|----------------------------------------------------------------------|
A|-3-3h5-----------------------3-3h5------------------------------------|
E|-------3-3h5-1-1/12h13p12\1--------3-3h5-1-1/12h13p12\1---------------|

VERSE
G|----------------------------------------------------------------------|
D|----------------------------------------------------------------------|
A|-3-3---------------3-3--------------3-3---------------3-3-------------|
E|-----3-3-1-1-0-1-0-----3-3-1-1-0-1~-----3-3-1-1-0-1-0-----3-3-1-1-1-1-|

PRE CHORUS 1
G|----------------------------------------------------------------------|
D|-------------2h3p2----------------------------------------------------|
A|-333333333333-----3-------------2h3p2---------------------------------|
E|--------------------333333333333-----3--------------------------------|

G|----------------------------------------------------------------------|
D|----------------------------------------------------------------------|
A|-0000000000000000-----------------------------------------------------|
E|------------------11111111-33333333-----------------------------------|
[ Tab from: http://www.guitartabs.cc/tabs/f/freefaller/do_this_do_that_btab.html ]
CHORUS 1
G|----------------------------------------------------------------------|
D|----------------------------------------------------------------------|
A|-3333333333333333-----------------------------------------------------|
E|------------------3333333333333333-1111111111111111-------------------|

BRIDGE
G|----------------------------------------------------------------------|
D|----------------------------------------------------------------------|
A|3333333333333333------------------0000000000000000--------------------|
E|-----------------3333333333333333------------------1111111133333-3-3-3|

CHORUS 2
G|----------------------------------------------------------------------|
D|----------------------------------------------------------------------|
A|-3-3h5--------------------------3-3h5---------------------------------|
E|-------3-3h5-1-1/13-13-13-13-13-------3-3h5-1-1/13-13-13-13-13--------|

PRE CHORUS 2
G|----------------------------------------------------------------------|
D|--------------2h3p2---------------------------------------------------|
A|-3333333333333-------------------2h3p2--------------------------------|
E|--------------------3333333333333-------------------------------------|

G|----------------------------------------------------------------------|
D|----------------------------------------------------------------------|
A|-0000000000000000-----------------------------------------------------|
E|------------------11111111-3------------------------------------------|

OUTRO
G|----------------------------------------------------------------------|
D|----------------------------------------------------------------------|
A|-3-3h5--------------------------3-3h5---------------------------------|
E|-------3-3h5-1-1/13-13-13-13-13-------3-3h5-1~~~~~~-------------------|

STRUCTURE:
INTRO x1
INTRO (PART TWO) x2
VERSE x1
PRE CHORUS 1 x1
CHORUS 1 x2
INTRO (PART TWO) x1
VERSE x1
PRE CHORUS 1 x1
CHORUS 1 x2
BRIDGE x1
CHORUS 2 x2
PRE CHORUS 2 x1
CHORUS 1 x4
OUTRO x1
Comments