Freedom Call - Hymn To The Brave Chords & Tabs

 

Hymn To The Brave Chords & Tabs

Freedom Call Chords & Tabs

Version: 1 Type: Tab 0 ratings
1 star 2 stars 3 stars 4 stars 5 stars
comments

Hymn To The Brave Tab

#----------------------------------PLEASE NOTE--------------------------------#
#This file is the author's own work and represents their interpretation of the#
#song. You may only use this file for private study, scholarship, or research.#
#-----------------------------------------------------------------------------#

Author/Artist: FREEDOM CALL (Chris Bay/Daniel Zimmermann)
Title: Hymn To The Brave
Album: Stairway To Fairyland
Transcribed by: Carlos Diaz
place: mexico
E-mail: ironroses85@hotmail.com
please email if you get the backround chords... cuz i have a bad ear for chords

Tune 1/2 down!!!

structure of song...
intro
verse without keyboard
verse with guitar
intro (with second guitar from now on)
verse without keyboard
verse with guitar
intro
chorus
last chorus
solo
chorus
intro
finish with A5 

Intro                                                           
Eb||----------------------------------------------------|
Bb||----------------------------------------------------|
Gb||-----9--7h-6---------------------------9------------|
Db||--7-----------9--7-----7-----9--9--11-----11--9-----|Just the first time like
Ab||--------------------7-----7-------------------------|this...the later ones like
Eb||----------------------------------------------------|the second
                                                       
Eb||---------------------------------------------------|
Bb||---------------------------------------------------|
Gb||--9--7h-6---------------9--------------------------|
Db||7----------9--9--9--12-----11--7--7/-9--7----------|
Ab||---------------------------------------------------|
Eb||---------------------------------------------------|

     with backround chords(dont know them)                                                  
Eb||----------------------------------------------------|
Bb||----------------------------------------------------|
Gb||-----9--7h-6---------------------------9------------|
Db||--7-----------9--9-----7-----9--9--11-----11--9-----|all times after this one
Ab||--------------------7-----7-------------------------|like this..
Eb||----------------------------------------------------|

                                                       
Eb||---------------------------------------------------|
Bb||---------------------------------------------------|
Gb||--9--7h-6---------------9--------------------------|
Db||7----------9--9--9--12-----11--7--7/-9--7--7-------|
Ab||---------------------------------------------------|
Eb||---------------------------------------------------|



then comes the verse with only keyboards.....
verses with guitar(hear the song for timing and repetition of chords)
Eb||----------------------------------------------------|
Bb||----------------------------------------------------|
Gb||-----9-----------------------------------------------|
Db||--7--9------------------------------------------------|
Ab||--7--7------------------------------------------------|
Eb||--5--------------------------------------------------|


[ Tab from: http://www.guitartabs.cc/tabs/f/freedom_call/hymn_to_the_brave_tab.html ]
chorus(hear the song for timing and repetition of chords)
Eb||----------------------------------------------------|
Bb||----------------------------------------------------|
Gb||-------9..-------7..-------9..----------------------|play 4 or 5 times...
Db||--7..--9..-9..---7..-7..---9..-9..------------------|
Ab||--7..--7..-9..---5..-7..---7..-9..------------------|
Eb||--5..------7..-------5..-------7..------------------|



last chorus
Eb||----------------------------------------------------|
Bb||----------------------------------------------------|
Gb||-------9..-------7..--------------------------------|play 4 or 5 times...
Db||--7..--9..-9..---7..-7..---9..-7..------------------|
Ab||--7..--7..-9..---5..-7..---9..-7..------------------|
Eb||--5..------7..-------5..---7..-5..------------------|




Solo 

   (bit faster)                                      (bit faster)  
Eb||-------------------------------------------------------------------------------------------|
Bb||-------------12~--10h12p12-------------------------------------13~-12h13p12-10-------------|
Gb||-------11-12---------------12-11-11h12hp11------------11h12p11-----------------12-11-12~---|
Db||-11h14-------------------------------------14-13~---13-------------------------------------|
Ab||-------------------------------------------------------------------------------------------|
Eb||-------------------------------------------------------------------------------------------|

    (bit faster..........)
Eb||------------------------------------------------------------------------|
Bb||-----------------------------------------17b-16h17p16-16s19-17-16-16s17-|
Gb||-----------------------11s12s11-11s17s16--------------------------------|
Db||---------------11-12-14-------------------------------------------------|
Ab||----------12-14---------------------------------------------------------|
Eb||-12-14-15---------------------------------------------------------------|


now with backround chords also..
     (bit faster)                          
Eb||---------------------------------------------------------------------------------------------------------|
Bb||-------------12~--10h12p12-----------------------------------------13~-12h13p12-10-----------------------|
Gb||-------11-12---------------12-11-11h12hp11-----------------11h12p11-----------------12-11-12p11----------|
Db||-11h14-------------------------------------14p13-14s16~--13--------------------------------------14-13-14|
Ab||---------------------------------------------------------------------------------------------------------|
Eb||---------------------------------------------------------------------------------------------------------|


    (bit faster..........)
Eb||------------------------------------------------------------------------|
Bb||------------------------------------17b-16h17p16-17-16-17--16h17b--17~--|
Gb||-----------------------11s12~s17s16-------------------------------------|
Db||---------------11-12-14-------------------------------------------------|
Ab||----------12-14---------------------------------------------------------|
Eb||-12-14-15---------------------------------------------------------------|




Oficial webpage: www.freedom-call.com/        

~  - vibrato
h  - hammer on
p  - pull off
s  - slide
Comments